Oops, an error
Loading. Please wait.

Heres The Thing tab

version 1
version 1

Whole song

Interactive

1,519 views 6 this week
no commentswrite comment
1 2 3 4 5
3 more votes to show rating
add to favorites
×
Save as Personal and add changes to this tab that will be seen only by you. Learn more ›
×
You can save this tab as Personal to edit and correct it or add notes. All changes will be seen only by you. Learn more »
launch autoscroll
font size
0
reset
how to read this tab
guitar tuner
edit
Autoscroll
slow
fast
+/-
esc
set tempo
stop
Already uploaded a Guitar Pro version of this, here#s the ASCII if you don't have 
the program. Also I have made some changes since uploading the guitar pro version, 
which I have indicated on here.

Intro    
H.           E  E     E  E  Q    E  Q    E     E  E  Q    E  Q    E   
E||---------------------|------------------------|------------------------|
B||---------------------|------------------------|------------------------|
G||------------------5--|--L--5--7-------5----7--|--L--5--5-------7----5--|
D||---------------------|------------------------|------------------------|
A||------------------6--|--L--6--6-------6----6--|--L--6--6-------6----6--|
D||---------------------|------------------------|------------------------|

                                                First Verse
  E  E  Q    E  Q    E     E  E  Q.     Q.         E.   E.   E   Q    Q     
------------------------|----------------------|---------------------------|
------------------------|----------------------|----------------11----L----|
--L--5--7-------5----7--|--L--5--5------7------|-------12------------------|
------------------------|----------------------|---------------------------|
--L--6--6-------6----6--|--L--6--6------6------|--10--------10-------------|
------------------------|----------------------|---------------------------|

                             
  H         E.   E.   E      W                 
-----------15---13---10--|--------------------|
--L--------15------------|--13----------------|
-------------------------|--12----------------|
-------------------------|--------------------|
-------------------------|--------------------|
-------------------------|--------------------|


   E    E  E   E  E   E   E   E      E.   E.   E   Q    Q     
---------------------------------|---------------------------|
--15p--13--L--10--L--11--10------|----------------11----L----|
--12-------------------------12--|-------12------------------|
---------------------------------|---------------------------|
---------------------------------|--10--------10-------------|
---------------------------------|---------------------------|

                             
  H         E.   E.   E      W                 
-----------15---13---10--|--------------------|
--L--------15------------|--13----------------|
-------------------------|--12----------------|
-------------------------|--------------------|
-------------------------|--------------------|
-------------------------|--------------------|


   E    E  E   E  E   E   E   E      E.   E.   E   E    E  Q     
---------------------------------|------------------------------|
--15p--13--L--10--L--11--10------|----------------11h--13--L----|
--12-------------------------12--|-------12---------------------|
---------------------------------|------------------------------|
---------------------------------|--10--------10----------------|
---------------------------------|------------------------------|

                             
  H         E.   E.   E      W                 
-----------15---13---10--|--------------------|
--L--------15------------|--13----------------|
-------------------------|--12----------------|
-------------------------|--------------------|
-------------------------|--------------------|
-------------------------|--------------------|


   E    E  E   E  E   E   E   E      E.   E.   E   E    E  Q     
---------------------------------|------------------------------|
--15p--13--L--10--L--11--10------|----------------11h--13--L----|
--12-------------------------12--|-------12---------------------|
---------------------------------|------------------------------|
---------------------------------|--10--------10----------------|
---------------------------------|------------------------------|

                             
  H         E.   E.   E      W                    E    E  E   E  E   Q    E   
-----------15---13---10--|--------------------|------------------------------|
--L--------15------------|--13----------------|--15p--13--L--10--L--11-------|
-------------------------|--12----------------|--12--------------------------|
-------------------------|--------------------|------------------------------|
-------------------------|--------------------|------------------------------|
-------------------------|--------------------|---------------------------1--|

Chorus.                           *Changed from C to D
  E  E  Q      Q    E  E     E  E  E  E  E   E   E   E   
--------------------------|-----------------------------|
--------------------------|-----------------10----------|
--------3br------------5--|--L-----7------------10------|
---------------1----------|-----------------------------|
--------------------6-----|-----6-----6--8----------10--|
--L--1--------------------|-----------------------------|


  E  E   E  E  Q    E  E     E  E  E  E  E   E  E  E   
--------------------------|---------------------------|
--------------------------|-----6---------------------|
---------------7----------|---------------------------|
-----8------8-------------|--------7-----7h--8--x-----|
--L-----10----------6--8--|--L--------8---------------|
--------------------------|------------------------1--|

                                   *
  E  E  Q      Q    E  E     E  E  E  E  E   E   E   E   
--------------------------|-----------------------------|
--------------------------|-----------------10----------|
--------3br------------5--|--L-----7------------10------|
---------------1----------|-----------------------------|
--------------------6-----|-----6-----6--8----------10--|
--L--1--------------------|-----------------------------|


  E  E   E  E  Q    E  E     E  E  E  E  E   E  E  E   
--------------------------|---------------------------|
--------------------------|-----6---------------------|
---------------7----------|---------------------------|
-----8------8-------------|--------7-----7h--8--x-----|
--L-----10----------6--8--|--L--------8---------------|
--------------------------|------------------------1--|

                                   *
  E  E  Q      Q    E  E     E  E  E  E  E   E   E   E   
--------------------------|-----------------------------|
--------------------------|-----------------10----------|
--------3br------------5--|--L-----7------------10------|
---------------1----------|-----------------------------|
--------------------6-----|-----6-----6--8----------10--|
--L--1--------------------|-----------------------------|


  E  E   E  E  Q    E  E     E  E  E  E  E   E  E  E   
--------------------------|---------------------------|
--------------------------|-----6---------------------|
---------------7----------|---------------------------|
-----8------8-------------|--------7-----7h--8--x-----|
--L-----10----------6--8--|--L--------8---------------|
--------------------------|------------------------1--|

                                   *
  E  E  Q      Q    E  E     E  E  E  E  E   E   E   E   
--------------------------|-----------------------------|
--------------------------|-----------------10----------|
--------3br------------5--|--L-----7------------10------|
---------------1----------|-----------------------------|
--------------------6-----|-----6-----6--8----------10--|
--L--1--------------------|-----------------------------|


  E  E   E  E  Q    E  E     E  E  E  E  E   E  E  E   Second Verse                     
--------------------------|---------------------------|-----|-----|-----|-----|
--------------------------|-----6---------------------|-----|-----|-----|-----|
---------------7----------|---------------------------|-----|-----|-----|-----|
-----8------8-------------|--------7-----7h--8--x-----|-----|-----|-----|-----|
--L-----10----------6--8--|--L--------8---------------|-----|-----|-----|-----|
--------------------------|---------------------------|-----|-----|-----|-----|


            H        E  Q.                          
---------|---------------------|---------|---------|
---------|---------------------|---------|---------|
---------|--------------3------|---------|---------|
---------|--------------5------|---------|---------|
---------|---------------------|---------|---------|
---------|---------------------|---------|---------|

#Changed to all low octave.                              
     ^                                                                         
     E  E  E  E  E  E  Q       H         E.   E.   E      W                 
----------------------------|-----------15---13---10--|--------------------|
-----------------------8----|--L--------15------------|--13----------------|
----------------------------|-------------------------|--12----------------|
----------------------------|-------------------------|--------------------|
----------------------------|-------------------------|--------------------|
-----8--7--8--7--8--7-------|-------------------------|--------------------|

                                       #
                                       ^                         
   E    E  E   E  E   E   E   E.       E  E  E  E  E  E  Q     
---------------------------------|----------------------------|
--15p--13--L--10--L--11--10------|-----------------------8----|
--12-------------------------12--|----------------------------|
---------------------------------|----------------------------|
---------------------------------|----------------------------|
---------------------------------|-----8--7--8--7--8--7-------|


  H         E.   E.  E     S S   E  H.              E  E   E  E   E  E  E  E   
------------------------|------------------------|----------------------------|
--L--------10-----------|------------------------|----------------------------|
----------------10------|------------------------|-------------------------5--|
---------------------8--|--L-8h-10--L------------|--L-----12-----10--L--------|
------------------------|------------------------|-----8------8------------6--|
------------------------|------------------------|----------------------------|

Bridge
  E  E  Q    E  Q    E     E  E  Q    E  Q    E     E  E  Q    E  Q    E   
------------------------|------------------------|------------------------|
------------------------|------------------------|------------------------|
--L--5--7-------5----7--|--L--5--5-------7----5--|--L--5--7-------5----7--|
------------------------|------------------------|------------------------|
--L--6--6-------6----6--|--L--6--6-------6----6--|--L--6--6-------6----6--|
------------------------|------------------------|------------------------|

                       Chorus
  E  E  Q.     Q    E     E  E  Q      Q    E  E   
-----------------------|--------------------------|
-----------------------|--------------------------|
--L--5--5------7-------|--------3br------------5--|
-----------------------|---------------1----------|
--L--6--6------6-------|--------------------6-----|
--------------------1--|--L--1--------------------|


  E  E  E  E  E   E   E   E     E  E   E  E  Q    E  E   
-----------------------------|--------------------------|
-----------------10----------|--------------------------|
--L-----5------------10------|---------------7----------|
-----------------------------|-----8------8-------------|
-----6-----6--8----------10--|--L-----10----------6--8--|
-----------------------------|--------------------------|


  E  E  E  E  E   E  E  E     E  E  Q      Q    E  E   
---------------------------|--------------------------|
-----6---------------------|--------------------------|
---------------------------|--------3br------------5--|
--------7-----7h--8--x-----|---------------1----------|
--L--------8---------------|--------------------6-----|
------------------------1--|--L--1--------------------|


  E  E  E  E  E   E   E   E     E  E   E  E  Q    E  E   
-----------------------------|--------------------------|
-----------------10----------|--------------------------|
--L-----5------------10------|---------------7----------|
-----------------------------|-----8------8-------------|
-----6-----6--8----------10--|--L-----10----------6--8--|
-----------------------------|--------------------------|


  E  E  E  E  E   E  E  E     E  E  Q      Q    E  E   
---------------------------|--------------------------|
-----6---------------------|--------------------------|
---------------------------|--------3br------------5--|
--------7-----7h--8--x-----|---------------1----------|
--L--------8---------------|--------------------6-----|
------------------------1--|--L--1--------------------|


  E  E  E  E  E   E   E   E     E  E   E  E  Q    E  E   
-----------------------------|--------------------------|
-----------------10----------|--------------------------|
--L-----5------------10------|---------------7----------|
-----------------------------|-----8------8-------------|
-----6-----6--8----------10--|--L-----10----------6--8--|
-----------------------------|--------------------------|


  E  E  E  E  E   E  E  E     E  E  Q      Q    E  E   
---------------------------|--------------------------|
-----6---------------------|--------------------------|
---------------------------|--------3br------------5--|
--------7-----7h--8--x-----|---------------1----------|
--L--------8---------------|--------------------6-----|
------------------------1--|--L--1--------------------|


  E  E  E  E  E   E   E   E     E  E   E  E  Q    E  E   
-----------------------------|--------------------------|
-----------------10----------|--------------------------|
--L-----5------------10------|---------------7----------|
-----------------------------|-----8------8-------------|
-----6-----6--8----------10--|--L-----10----------6--8--|
-----------------------------|--------------------------|

                           Middle 8
                               ^                                     
  E  E  E  E  E   E  E  E      W                   W                 
---------------------------|--10----------------|--L----------------|
-----6---------------------|--11----------------|--L----------------|
---------------------------|--12----------------|--L----------------|
--------7-----7h--8--x-----|--12----------------|--L----------------|
--L--------8---------------|--10----------------|--L----------------|
---------------------------|--------------------|-------------------|


                                           ^                 
  W                   W                    W                 
--L----------------|--L----------------|--10----------------|
--L----------------|--L----------------|--11----------------|
--L----------------|--L----------------|--12----------------|
--L----------------|--L----------------|--12----------------|
--L----------------|--L----------------|--10----------------|
-------------------|-------------------|--------------------|


  W                   W                   W                 
--L----------------|--L----------------|--L----------------|
--L----------------|--L----------------|--L----------------|
--L----------------|--L----------------|--L----------------|
--L----------------|--L----------------|--L----------------|
--L----------------|--L----------------|--L----------------|
-------------------|-------------------|-------------------|


   E   E   E   E   E   E   E   E      E   E   E   E   E   E   E  E   
----------------------------------|---------------------------------|
------11------11------11------11--|------11------11------11---------|
--12------12------12------12------|--12------12------12------12-----|
----------------------------------|------------------------------x--|
----------------------------------|---------------------------------|
----------------------------------|---------------------------------|


   E   E   E   E   E   E   E   E      E   E   E  Q    E  E  E   
----------------------------------|----------------------------|
------10------10------10----------|----------------------------|
--10------10------10------10---7--|---L---7------5----5-----5--|
-------------------------------8--|---L---8------7----7--------|
------------------------------10--|---L--10--10--8----8--8--6--|
----------------------------------|----------------------------|


  E  E  Q    E  Q    E     E  E  Q    E  Q    E     E  E  Q    E  Q    E   
------------------------|------------------------|------------------------|
------------------------|------------------------|------------------------|
--L--5--7-------5----7--|--L--5--5-------7----5--|--L--5--7-------5----7--|
------------------------|------------------------|------------------------|
--L--6--6-------6----6--|--L--6--6-------6----6--|--L--6--6-------6----6--|
------------------------|------------------------|------------------------|


  E  E  Q.     Q     E     E   E   E   E   E   E   E   E   
------------------------|---------------------------------|
--------------------11--|--L--11--11--11--11--11--11--11--|
--L--5--5------7----12--|--L--12--12--12--12--12--12--12--|
--------------------12--|--L--12--12--12--12--12--12--12--|
--L--6--6------6----10--|--L--10--10--10--10--10--10--10--|
------------------------|---------------------------------|


   E   E   E   E   E   E   E   E     E   E   E   E   E   E   E   E   
----------------------------------|---------------------------------|
--11--11--11--11--11--11------10--|--L--10--10--10--10--10----------|
--12--12--12--12--12--12---x--10--|--L--10--10--10--10--10---x---7--|
--12--12--12--12--12--12---x--10--|--L--10--10--10--10--10---x---8--|
--10--10--10--10--10--10---x---8--|--L---8---8---8---8---8---x--10--|
----------------------------------|---------------------------------|


   E   E   E  E   E  E   E  E     E  E  Q     E  Q    E   
-------------------------------|-------------------------|
-------------------------------|-------------------------|
---L---7---x--5---L--5---x--5--|--L--5--7b----x--5----7--|
---L---8---x--7---L--7---x-----|-------------------------|
---L--10---x--8---L--8---x--6--|--L--6--6-----x--6----6--|
-------------------------------|-------------------------|


  E  E  Q    E  Q    E     E  E  Q     E  Q    E     E  E  Q    E  E  E  E   
------------------------|-------------------------|-------------------------|
------------------------|-------------------------|-------------------------|
--L--5--5----x--7----5--|--L--5--7b-------5----7--|--L--5--5----x--x-----3--|
------------------------|-------------------------|----------------------1--|
--L--6--6----x--6----6--|--L--6--6--------6----6--|--L--6--6----x--x-----1--|
------------------------|-------------------------|----------------------1--|

Chorus
  E  E  E  E  E  E  E  E     E  E  E  E  E  E  E  E   
--------------------------|--------------------------|
--------------------------|--------------------------|
--L--3--3--3--3--3--3--3--|--3--3--3--3--3--3--3--3--|
--L--1--1--1--1--1--1--1--|--1--1--1--1--1--1--1--5--|
--L--1--1--1--1--1--1--1--|--1--1--1--1--1--1--1--5--|
--L--1--1--1--1--1--1--1--|--1--1--1--1--1--1--1--5--|


  E  E  E  E  E  E  E  E     E  E  E  E  E  E  E  E   
--------------------------|--------------------------|
--------------------------|--------------------------|
--L--3--3--3--3--3--3--2--|--L--2--2--2--2--2--2--3--|
--L--5--5--5--5--5--5--3--|--L--3--3--3--3--3--3--1--|
--L--5--5--5--5--5--5--3--|--L--3--3--3--3--3--3--1--|
--L--5--5--5--5--5--5--3--|--L--3--3--3--3--3--3--1--|


  E  E  E  E  E  E  E  E     E  E  E  E  E  E  E  E   
--------------------------|--------------------------|
--------------------------|--------------------------|
--L--3--3--3--3--3--3--3--|--3--3--3--3--3--3--3--3--|
--L--1--1--1--1--1--1--1--|--1--1--1--1--1--1--1--5--|
--L--1--1--1--1--1--1--1--|--1--1--1--1--1--1--1--5--|
--L--1--1--1--1--1--1--1--|--1--1--1--1--1--1--1--5--|


  E  E  E  E  E  E  E  E     E  E  E  E  E  E  E  E     Q    E  E  Q.     E   
--------------------------|--------------------------|-----------------------|
--------------------------|--------------------------|-----------------------|
--L--3--3--3--3--3--3--2--|--L--2--2--2--2--2--2--2--|-------3-----3------3--|
--L--5--5--5--5--5--5--3--|--L--3--3--3--3--3--3--3--|-------1-----1------1--|
--L--5--5--5--5--5--5--3--|--L--3--3--3--3--3--3--3--|-------1-----1------1--|
--L--5--5--5--5--5--5--3--|--L--3--3--3--3--3--3--3--|-------1-----1------1--|


  E  E  E  E  E  E  E  E     E  E  E  E  E  E  E  E   
--------------------------|--------------------------|
--------------------------|--------------------------|
--L--3--3--3--3--3--3--3--|--L--3--3--3--3--3--3--2--|
--L--1--1--1--1--1--1--5--|--L--5--5--5--5--5--5--3--|
--L--1--1--1--1--1--1--5--|--L--5--5--5--5--5--5--3--|
--L--1--1--1--1--1--1--5--|--L--5--5--5--5--5--5--3--|


  E  E  E  E  E  E  E  E     E  E  E  E  E  E  E  E   
--------------------------|--------------------------|
--------------------------|--------------------------|
--L--2--2--2--2--2--2--3--|--L--3--3--3--3--3--3--3--|
--L--3--3--3--3--3--3--1--|--L--1--1--1--1--1--1--1--|
--L--3--3--3--3--3--3--1--|--L--1--1--1--1--1--1--1--|
--L--3--3--3--3--3--3--1--|--L--1--1--1--1--1--1--1--|


  E  E  E  E  E  E  E  E     E  E  E  E  E  E  E  E   
--------------------------|--------------------------|
--------------------------|--------------------------|
--3--3--3--3--3--3--3--3--|--L--3--3--3--3--3--3--2--|
--1--1--1--1--1--1--1--5--|--L--5--5--5--5--5--5--3--|
--1--1--1--1--1--1--1--5--|--L--5--5--5--5--5--5--3--|
--1--1--1--1--1--1--1--5--|--L--5--5--5--5--5--5--3--|


  E  E  E  E  E  E  E  E     W                   W                 
--------------------------|-------------------|-------------------|
--------------------------|-------------------|-------------------|
--L--2-----2--L--2-----3--|--L----------------|--L----------------|
--L--3--x--3--L--3--x--1--|--L----------------|--L----------------|
--L--3--x--3--L--3--x--1--|--L----------------|--L----------------|
--L--3--x--3--L--3--x--1--|--L----------------|--L----------------|


  W                   W                                      
-------------------|-------------------|-------------------||
-------------------|-------------------|-------------------||
--3----------------|--L----------------|-------------------||
--5----------------|--L----------------|-------------------||
--5----------------|--L----------------|-------------------||
--5----------------|--L----------------|-------------------||




Duration Legend
---------------
W - whole
H - half
Q - quarter
E - 8th
S - 16th
T - 32nd
X - 64th
. - note dotted
|-n-|  - n-tuplets


Tablature Legend
----------------
L - tied note
x - dead note
g - grace note
(n) - ghost note
> - accentuded note
NH - natural harmonic
AH - artificial harmonic
TH - tapped harmonic
SH - semi harmonic
PH - pitch harmonic
h - hammer on
p - pull off
b - bend
br - bendRelease
pb - preBend
pbr - preBendRelease
brb - bendReleaseBend
\n/ - tremolo bar dip
\n - tremolo bar dive
-/n - tremolo bar Release up
/n\ - tremolo bar inverted dip
/n - tremolo bar return
-\n - tremolo bar Release down
S - shift slide
s - legato slide
/ -  slide into from below or out of upwards
\ -  slide into from above or out of downwards
~ - vibrato
W - wide vibrato
tr - trill
TP - tremolo picking
T - tapping
S - slap
P - pop
< - fade in
^ - brush up
v - brush down

            
            
Suggest correction
Creating personal tab
Creating personal tab
You can edit any tab online and save it as your Personal.

You can edit, replace or remove any tab part or add personal notes – all changes will be seen only by you.

Personal tabs can be accessed anytime from any device, even offline.
Learn more »
Give kudos to tab author, rate the tab!
1 2 3 4 5
comments
print report bad tab
guest
You may want to rate the tab now too:
select rating
Wanna post a correction for this tab? Suggest correction