Oops, an error
Loading. Please wait.

Heavy Metal Takin A Ride bass

version 1
version 1

Whole song

Interactive

8,703 views 12 this week
no commentswrite comment
1 2 3 4 5
x 5
add to favorites
×
Save as Personal and add changes to this tab that will be seen only by you. Learn more ›
×
You can save this tab as Personal to edit and correct it or add notes. All changes will be seen only by you. Learn more »
launch autoscroll
font size
0
reset
guitar tuner
backing track
0:00
0:00
edit
Autoscroll
slow
fast
+/-
esc
set tempo
stop
Intro

G------------------|--------------|------------------|--------------|
D------------------|--------------|------------------|--------------|
A--5h7-------------|--------------|------------------|--------------|
E-------0--0--0----|--0-0-0-0-----|--3h5--5--5--5----|--5-5-5-3-----|

G------------------|--------------|------------------|--------------|
D------------------|--------------|------------------|----7---5-----|
A--5h7-------------|--------------|------------------|--------------|
E-------0--0--0----|--0-0-0-0-----|--3h5--5--5--5----|--5---5-------|

G------------------|--------------|------------------|--------------|
D------------------|--------------|------------------|--------------|
A--5h7-------------|--------------|------------------|--------------|
E-------0--0--0----|--0-0-0-0-----|--3h5--5--5--5----|--5-5-5-3-----|

G------------------|--------------|------------------|--------------|
D------------------|--------------|------------------|----7---5-----|
A--5h7-------------|--------------|------------------|--------------|
E-------0--0--0----|--0-0-0-0-----|--3h5--5--5--5----|--5---5-------|



Verse 1

G------------------|--------------|------------------|--------------|
D------------------|--------------|------------------|--------------|
A--5h7-------------|--------------|------------------|--------------|
E-------0--0--0----|--0-0-0-0-----|--3h5--5--5--5----|--5-5-5-3-----|

G------------------|--------------|------------------|--------------|
D------------------|--------------|------------------|----7---5-----|
A--5h7-------------|--------------|------------------|--------------|
E-------0--0--0----|--0-0-0-0-----|--3h5--5--5--5----|--5---5-------|

G------------------|--------------|------------------|--------------|
D------------------|--------------|------------------|--------------|
A--5h7-------------|--------------|------------------|--------------|
E-------0--0--0----|--0-0-0-0-----|--3h5--5--5--5----|--5-5-5-3-----|

G------------------|--------------|------------------|--------------|
D------------------|--------------|------------------|--------------|
A--5h7-------------|--------------|------------------|--------------|
E-------0--0--0----|--0-0-0-0-----|--3h5--5----5-3-2-|-0------------|



Chorus

G------------------|--------------|------------------|--------------|
D------------------|--------------|------------------|--------------|
A------------------|--------------|--5h7-------------|--------------|
E--5---------------|--3-----------|-------0--0--0----|--0-0-0-0-----|

G------------------|--------------|------------------|--------------|
D------------------|--------------|------------------|--------------|
A--------------2-3-|--3-4-5-------|--5h7-------------|--------------|
E--5---------5-----|--------------|-------0--0--0----|--0-0-0-0-----|

G------------------|--------------|------------------|--------------|
D------------------|--------------|------------------|--------------|
A------------------|--------------|--5h7-------------|--------------|
E--5---------------|--3-----------|-------0--0--0----|--0-0-0-0-----|

G------------------|--------------|------------------|--------------|
D------------------|--------------|------------------|--------------|
A--------------2-3-|--3-4-5-------|--5h7-------------|--------------|
E--5---------5-----|--------------|-------0--0--0----|--0-0-0-0-----|

G------------------|--------------|
D------------------|--------------|
A------------------|--------------|
E--3h5--5--5--5----|--5-5-5-3-----|

G------------------|--------------|------------------|--------------|
D------------------|--------------|------------------|----7---5-----|
A--5h7-------------|--------------|------------------|--------------|
E-------0--0--0----|--0-0-0-0-----|--3h5--5--5--5----|--5---5-------|



Verse 2

G------------------|--------------|------------------|--------------|
D------------------|--------------|------------------|--------------|
A--5h7-------------|--------------|------------------|--------------|
E-------0--0--0----|--0-0-0-0-----|--3h5--5--5--5----|--5-5-5-3-----|

G------------------|--------------|------------------|--------------|
D------------------|--------------|------------------|----7---5-----|
A--5h7-------------|--------------|------------------|--------------|
E-------0--0--0----|--0-0-0-0-----|--3h5--5--5--5----|--5---5-------|

G------------------|--------------|------------------|--------------|
D------------------|--------------|------------------|--------------|
A--5h7-------------|--------------|------------------|--------------|
E-------0--0--0----|--0-0-0-0-----|--3h5--5--5--5----|--5-5-5-3-----|

G------------------|--------------|------------------|--------------|
D------------------|--------------|------------------|--------------|
A--5h7-------------|--------------|------------------|--------------|
E-------0--0--0----|--0-0-0-0-----|--3h5--5----5-3-2-|-0------------|



Chorus

G------------------|--------------|------------------|--------------|
D------------------|--------------|------------------|--------------|
A------------------|--------------|--5h7-------------|--------------|
E--5---------------|--3-----------|-------0--0--0----|--0-0-0-0-----|

G------------------|--------------|------------------|--------------|
D------------------|--------------|------------------|--------------|
A--------------2-3-|--3-4-5-------|--5h7-------------|--------------|
E--5---------5-----|--------------|-------0--0--0----|--0-0-0-0-----|

G------------------|--------------|------------------|--------------|
D------------------|--------------|------------------|--------------|
A------------------|--------------|--5h7-------------|--------------|
E--5---------------|--3-----------|-------0--0--0----|--0-0-0-0-----|

G------------------|--------------|------------------|--------------|
D------------------|--------------|------------------|--------------|
A--------------2-3-|--3-4-5-------|--5h7-------------|--------------|
E--5---------5-----|--------------|-------0--0--0----|--0-0-0-0-----|

G------------------|--------------|
D------------------|--------------|
A------------------|--------------|
E--3h5--5--5--5----|--5-5-5-3-----|

G------------------|--------------|------------------|--------------|
D------------------|--------------|------------------|----7---5-----|
A--5h7-------------|--------------|------------------|--------------|
E-------0--0--0----|--0-0-0-0-----|--3h5--5--5--5----|--5---5-------|



Closing Solo

G------------------|--------------|------------------|--------------|
D------------------|--------------|------------------|--------------|
A--5h7-------------|--------------|------------------|--------------|
E-------0--0--0----|--0-0-0-0-----|--3h5--5--5--5----|--5-5-5-3-----|

G------------------|--------------|------------------|--------------|
D------------------|--------------|------------------|----7---5-----|
A--5h7-------------|--------------|------------------|--------------|
E-------0--0--0----|--0-0-0-0-----|--3h5--5--5--5----|--5---5-------|

G------------------|--------------|------------------|--------------|
D------------------|--------------|------------------|--------------|
A--5h7-------------|--------------|------------------|--------------|
E-------0--0--0----|--0-0-0-0-----|--3h5--5--5--5----|--5-5-5-3-----|

G------------------|--------------|------------------|--------------|
D------------------|--------------|------------------|----7---5-----|
A--5h7-------------|--------------|------------------|--------------|
E-------0--0--0----|--0-0-0-0-----|--3h5--5--5--5----|--5---5-------|

G------------------|--------------|------------------|--------------|
D------------------|--------------|------------------|--------------|
A--5h7-------------|--------------|------------------|--------------|
E-------0--0--0----|--0-0-0-0-----|--3h5--5--5--5----|--5-5-5-3-----|

G------------------|--------------|------------------|--------------|
D------------------|--------------|------------------|----7---5-----|
A--5h7-------------|--------------|------------------|--------------|
E-------0--0--0----|--0-0-0-0-----|--3h5--5--5--5----|--5---5-------|

G------------------|--------------|------------------|--------------|
D------------------|--------------|------------------|--------------|
A--5h7-------------|--------------|------------------|--------------|
E-------0--0--0----|--0-0-0-0-----|--3h5--5--5--5----|--5-5-5-3-----|

G------------------|--------------|------------------|--------------|
D------------------|--------------|------------------|----7---5-----|
A--5h7-------------|--------------|------------------|--------------|
E-------0--0--0----|--0-0-0-0-----|--3h5--5--5--5----|--5---5-------|

G------------------|--------------|------------------|--------------|
D------------------|--------------|------------------|--------------|
A--5h7-------------|--------------|------------------|--------------|
E-------0--0--0----|--0-0-0-0-----|--3h5--5--5--5----|--5-5-5-3-----|

G------------------|--------------|------------------|--------------|
D------------------|--------------|------------------|----7---5-----|
A--5h7-------------|--------------|------------------|--------------|
E-------0--0--0----|--0-0-0-0-----|--3h5--5--5--5----|--5---5-------|

G------------------|--------------|------------------|--------------|
D------------------|--------------|------------------|--------------|
A--5h7-------------|--------------|------------------|--------------|
E-------0--0--0----|--0-0-0-0-----|--3h5--5--5--5----|--5-5-5-3-----|

G------------------|--------------|------------------|--------------|
D------------------|--------------|------------------|----7---5-----|
A--5h7-------------|--------------|------------------|--------------|
E-------0--0--0----|--0-0-0-0-----|--3h5--5--5--5----|--5---5-------|

            
            
Suggest correction
Creating personal tab
Creating personal tab
You can edit any tab online and save it as your Personal.

You can edit, replace or remove any tab part or add personal notes – all changes will be seen only by you.

Personal tabs can be accessed anytime from any device, even offline.
Learn more »
comments
print report bad tab
guest
You may want to rate the tab now too:
select rating
Wanna post a correction for this tab? Suggest correction