Oops, an error
Loading. Please wait.

Hyvaa Yota Ja Huomenta chords

version 1
version 1

Whole song

Interactive

637 views 15 this week
no commentswrite comment
1 2 3 4 5
2 more votes to show rating
add to favorites
×
Save as Personal and add changes to this tab that will be seen only by you. Learn more ›
×
You can save this tab as Personal to edit and correct it or add notes. All changes will be seen only by you. Learn more »
launch autoscroll
font size
0
reset
transpose
0
reset
simplify chords
display chords
guitar tuner
edit
Autoscroll
slow
fast
+/-
esc
set tempo
stop
About this tab version
Includes tab for the solo. Was this info helpful? Yes No
Strumming
There is no strumming pattern for this song yet. and get +5 IQ
[Verse 1]
D5
  Täksi yöksi jää
B5                  F#5            E5
  Jokin koettaa sua täällä viivyttää
                 C5            A5
Luodinkestävää-ä-ää sydäntä ei oo vielä keksittykkään
D5                    B5            F#5         E5
  Jos sulla kerran on   taskussa se suuri unelma
                    C5                A5
Niin tämä hetki jää  ja vain se mitä teet nyt on tärkeää

[Chorus]
               D
Hyvää yötä ja huomenta
                 F#m
Ehdit myöhemmin nukkua
    Am
24 tuntia
                  G
Toivottavat sulle onneaan
               D
Hyvää yötä ja huomenta
           F#m
Älä vielä luovuta
             Am
Kaikella on hintansa
                        G
Mut mikään ei oo vielä mahdotonta

[Verse 2]
D
  Sitä sanotaan
Bm            F#m               Em
  Mennyttä ei takaisin voi saada
             C        Am
Eikä tulevaa  kannata jäädä oottamaan
D                     Bm           F#m           Em
  Jos sulla kerran on   joku josta oikeesti välität
                  D
Niin pidä siitä kii
C           Am
  Älä usko kyynisiin lauseisiin

[Chorus]
               D
Hyvää yötä ja huomenta
                 F#m
Ehdit myöhemmin nukkua
    Am
24 tuntia
                  G
Toivottavat sulle onneaan
               D
Hyvää yötä ja huomenta
               F#m
Hei älä vielä luovuta
             Am
Kaikella on hintansa
                        G
Mut mikään ei oo vielä mahdotonta

[Bridge]
Am               Em         Am        Em
  Luodinkestävää sydäntä ei oo vielä keksitykkään
Am             Em              G
  Turha pelätä laukausta sillä yksinäisyys saman reiän nakertaa

[Solo]
   1  +  2  +  3  +  4  +   1  +  2  +  3  +  4  +   1  +  2  +  3  +  4  +   1  +  2  +  3  +  4  +
   D5                                                B5                       F5
e|------------------------|------------------------|------------------------|-5--7--5-----------5----|
B|-------------3--5--3--2-|-3----------------------|----------0--0--2--3--0-|----------7-------------|
G|------------------------|------------------------|------------------------|------------------------|
D|------------------------|------------------------|------------------------|------------------------|
A|------------------------|------------------------|------------------------|------------------------|
E|------------------------|------------------------|------------------------|------------------------|

   1  +  2  +  3  +  4  +   1  +  2  +  3  +  4  +   1  +  2  +  3  +  4  +   1  +  2  +  3  +  4  +
   E5                                                C5                       A5
e|------------------------|------------------------|------------------------|-7-----5--0-----5-------|
B|-------------3--5--3--2-|-3----------------------|-------3--3--3--5--3--5-|------------------------|
G|------------------------|------------------------|------------------------|------------------------|
D|------------------------|------------------------|------------------------|------------------------|
A|------------------------|------------------------|------------------------|------------------------|
E|------------------------|------------------------|------------------------|------------------------|

   1       +       2       +       3       +       4
e|-5-5-5-5-5-5-5-5-5-5-5-5-5-5-5-5-5-5-5-5-5-5-5-5-5-|
B|---------------------------------------------------|
G|---------------------------------------------------|
D|---------------------------------------------------|
A|---------------------------------------------------|
E|---------------------------------------------------|
                                         (Hyvää yötä ja...)

[Chorus]
               D
Hyvää yötä ja huomenta
                 F#m
Ehdit myöhemmin nukkua
    Am
24 tuntia
                  G
Toivottavat sulle onneaan
               D
Hyvää yötä ja huomenta
               F#m
Hei älä vielä luovuta
             Am
Kaikella on hintansa
                    G
Mikään ei oo vielä mahdotonta

[Outro]
               D
Hyvää yötä ja huomenta

(fade out)
F#m   Am   G                D         F#m   Am
             (Hyvää yötä ja huomenta)

            
            
Suggest correction
Creating personal tab
Creating personal tab
You can edit any tab online and save it as your Personal.

You can edit, replace or remove any tab part or add personal notes – all changes will be seen only by you.

Personal tabs can be accessed anytime from any device, even offline.
Learn more »
Give kudos to tab author, rate the tab!
1 2 3 4 5
comments
print report bad tab
guest
You may want to rate the tab now too:
select rating
Wanna post a correction for this tab? Suggest correction