Oops, an error
Loading. Please wait.

Fool tab

version 2
version 2

Whole song

2,588 views 1 this week
1 commentread comment
1 2 3 4 5
1 last vote to show rating
add to favorites
×
Save as Personal and add changes to this tab that will be seen only by you. Learn more ›
×
You can save this tab as Personal to edit and correct it or add notes. All changes will be seen only by you. Learn more »
launch autoscroll
font size
0
reset
how to read this tab
guitar tuner
edit
Autoscroll
slow
fast
+/-
esc
set tempo
stop
Author
Difficulty
This is my first ever tab so sorry if it sucks… I saw another tab of this song which 
quite sound right to me but it helped me figure out this tab…

Standard Tuning

Intro:                                    
e|--------------------------------------------------------|
B|--------------------------------------------------------|
G|---------------------------------------4b5-2------------|
D|-4-4-4p2-----4-4-4p2-----4-4-4p2------------------------|
A|---------4-----------4-----------4----------------------|
E|--------------------------------------------------------|

e|--------------------------------------------------------|
B|--------------------------------------------------------|
G|---------------------------------------4b5-2-4-2--------|
D|-4-4-4p2-----4-4-4p2-----4-4-4p2------------------------|
A|---------4-----------4-----------4----------------------|
E|--------------------------------------------------------|

Verse:
Just play around with the same stuff from the intro.
e|----------------------------------------------------------------------|
B|----------------------------------------------------------------------|
G|------------------------------------------4b5-2—-4b5-2----2-----------|
D|-4-4-4p2-----4-4-4p2-----4-4-4p2----(x2)-----------------4-4-2---2----|
A|---------4-----------4-----------4-----------------------------4------|
E|----------------------------------------------------------------------|
“Ooh ooh baby…”                        |_not exact but you get it_|

Guitar stops for a while in the middle

Then just play around with
e|------------------------------------------|
B|------------------------------------------|
G|------------------------------------------|
D|-4-4-4p2-----4-4-4p2-----4-4-4p2----------|
A|---------4-----------4-----------4--------|
E|------------------------------------------|

Chorus:
e|--2--0---------------------------|
B|-------2-------------------------|
G|----------4—2b-------------------|
D|------------------4--------------|
A|---------------------------------|
E|---------------------------------|
"I ain't done nothin' to you”

Not sure of the solos yet but I think they’re made up of notes around the same area… you 
just improvise with a few hard bends here and there…

------------------
h - hammer-on
p - pull-off
/ - slide up

            
            
Suggest correction
Creating personal tab
Creating personal tab
You can edit any tab online and save it as your Personal.

You can edit, replace or remove any tab part or add personal notes – all changes will be seen only by you.

Personal tabs can be accessed anytime from any device, even offline.
Learn more »
Give kudos to tab author, rate the tab!
1 2 3 4 5
comments
print report bad tab
1 comment total.
0 reply
REP 86 Sep 24, 2007 03:46 PM, edited on November 26 2013, 03:55 am

--

guest
You may want to rate the tab now too:
select rating
Wanna post a correction for this tab? Suggest correction