Oops, an error
Loading. Please wait.

I Feel Love bass

1,498 views 33 this week
1 commentread comment
1 2 3 4 5
2 more votes to show rating
add to favorites
×
Save as Personal and add changes to this tab that will be seen only by you. Learn more ›
×
You can save this tab as Personal to edit and correct it or add notes. All changes will be seen only by you. Learn more »
launch autoscroll
font size
0
reset
guitar tuner
edit
Autoscroll
slow
fast
+/-
esc
set tempo
stop
I FEEL LOVE - Donna Summer


[Intro]

 00:00-00:54  "oh it's so good..." repeat the double C tap x 4 (4 lots of 2)

G|---------------------------------------------------------------------------|
D|-10~-----------------------------------------------------------------------|
A|--------3-3-----------1------3-3-----------1-------------------------------|
E|------------------3------------------3-------------------------------------|

00:55 - 01:24  "ooh I'm in love....." run up through Eb,  F and G

G|---------------------------------------------------------------------------|
D|------------------------------------------------------3-3-----1----3-3----1|
A|-6--6-----4----6-6----4-----6-6----4-----6-6----4---------3------------3---|
E|-------6-----------6-------------6----------------6------------------------|


G|---------------------------------------------------------------------------|
D|-3-3------1----3-3-----1---5-5----3-----5-5-----3---5-5-----3----5-5----3--|
A|------3-------------3----------5-------------5-----------5-----------5-----|
E|---------------------------------------------------------------------------|

G|---------------------------------------------------------------------------|
D|-5-5------3-----5-5-------3-----5-5-----3----5-5-----3---------------------|
A|------5---------------5--------------5------------5------------------------|
E|---------------------------------------------------------------------------|


[Chorus] 

01:25 - 01:54  "I feel love......"  play this x 2

G|---------------------------------------------------------------------------|
D|---------------------------------------------3-3----1----3-3----1---5-5----|
A|-3-3-----1--3-3----1-----6-6----4---6-6---4------3------------3---------5--|
E|------3----------3------------6----------6---------------------------------|

G|---------------------------------------------------------------------------|
D|-3---5-5-----3-------------------------------------------------------------|
A|----------5----------------------------------------------------------------|
E|---------------------------------------------------------------------------|

"falling free....."  play x 4 (i.e repeat the two four times)
G|---------------------------------------------------------------------------|
D|-~-------------------------------------------------------------------------|
A|--------3-3-----------1------3-3-----------1-------------------------------|
E|------------------3------------------3-------------------------------------|

"you and me....." play second part again.  Run up to Eb, F and G

G|---------------------------------------------------------------------------|
D|------------------------------------------------------3-3-----1----3-3----1|
A|-6--6-----4----6-6----4-----6-6----4-----6-6----4---------3------------3---|
E|-------6-----------6-------------6----------------6------------------------|

G|---------------------------------------------------------------------------|
D|-3-3------1----3-3-----1---5-5----3-----5-5-----3---5-5-----3----5-5----3--|
A|------3-------------3----------5-------------5-----------5-----------5-----|
E|---------------------------------------------------------------------------|

G|---------------------------------------------------------------------------|
D|-5-5------3-----5-5-------3-----5-5-----3----5-5-----3---------------------|
A|------5---------------5--------------5------------5------------------------|
E|---------------------------------------------------------------------------|

(repeat chorus x2)


G|---------------------------------------------------------------------------|
D|---------------------------------------------3-3----1----3-3----1---5-5----|
A|-3-3-----1--3-3----1-----6-6----4---6-6---4------3------------3---------5--|
E|------3----------3------------6----------6---------------------------------|

G|---------------------------------------------------------------------------|
D|-3---5-5-----3-------------------------------------------------------------|
A|----------5----------------------------------------------------------------|
E|---------------------------------------------------------------------------|

            
            
Suggest correction
Creating personal tab
Creating personal tab
You can edit any tab online and save it as your Personal.

You can edit, replace or remove any tab part or add personal notes – all changes will be seen only by you.

Personal tabs can be accessed anytime from any device, even offline.
Learn more »
Give kudos to tab author, rate the tab!
1 2 3 4 5
comments
print report bad tab
1 comment total.
0 reply
bass50611 13,467 May 26, 2016 02:42 AM

Good tab although I think your a bit out on your bar count lol!!
There are 48bars of C, 8 bars of Eb, 8 bars of F and then 16bars of G in Intro and 1st Verse.

guest
You may want to rate the tab now too:
select rating
Wanna post a correction for this tab? Suggest correction