Oops, an error
Loading. Please wait.

Marinade solo tab

version 1
version 1

Solo

  • Guitar solo for Marinade by Dope Lemon. All the cu... Show more

Interactive

1,144 views 21 this week
no commentswrite comment
1 2 3 4 5
x 4
add to favorites
×
Save as Personal and add changes to this tab that will be seen only by you. Learn more ›
×
You can save this tab as Personal to edit and correct it or add notes. All changes will be seen only by you. Learn more »
launch autoscroll
font size
0
reset
how to read this tab
guitar tuner
edit
Autoscroll
slow
fast
+/-
esc
set tempo
stop
Author
Difficulty
About this tab version
Guitar solo for Marinade by Dope Lemon. All the current versions of this tab are just the chords, so I thought i'd tab out the little guitar solo throughout the song. Was this info helpful? Yes No
The little guitar lick/solo in Marinade

Put it together with the rest of the song. (Bm...D...G....D)


"...Marinade on that for a little while..."


[Solo] (1:58)

e|---------------------------------------------------------------------------|
B|---------------------------------------------------------------------------|
G|---------------------------------------------------------------------------|
D|---------------------------------------------------------------------------|
A|-9-9-9-9-9-9-9-9-12--12-9---9-5--9-5---9-10-10-10-9------------------------|
E|--------------------------------7----7-------------------------------------|

e|---------------------------------------------------------------------------|
B|---------------------------------------------------------------------------|
G|---------------------------------------------------------------------------|
D|-9-9-9-9-9-9-9-9-----------------------------------------------------------|
A|-----------------9-9-5----9-5--9-5---9--10-10-10-5-------------------------|
E|-----------------------------7-----7---------------------------------------|



"...She wanted to die by the river..."


            
            
Suggest correction
Creating personal tab
Creating personal tab
You can edit any tab online and save it as your Personal.

You can edit, replace or remove any tab part or add personal notes – all changes will be seen only by you.

Personal tabs can be accessed anytime from any device, even offline.
Learn more »
comments
print report bad tab
guest
You may want to rate the tab now too:
select rating
Wanna post a correction for this tab? Suggest correction