Oops, an error
Loading. Please wait.

Catalyst tab

version 2
version 2

Whole song

Interactive

by Dorje
568 views 9 this week
no commentswrite comment
1 2 3 4 5
3 more votes to show rating
add to favorites
×
Save as Personal and add changes to this tab that will be seen only by you. Learn more ›
×
You can save this tab as Personal to edit and correct it or add notes. All changes will be seen only by you. Learn more »
launch autoscroll
font size
0
reset
how to read this tab
guitar tuner
edit
Autoscroll
slow
fast
+/-
esc
set tempo
stop
Tempo = 162
Steel Guitar


D#|-------------------------|-------------------------|
A#|-------------------------|-------------------------|
F#|-------------------------|-------------------------|
C#|-------------------------|-------------------------|
G#|--9----------------------|--9b---------------------|
C#|--------12-0--10-12-0----|--------12-0--10-12-0----|


D#|-------------------------|-------------------------|-------------------------|
A#|-------------------------|-------------------------|-------------------------|
F#|--------------12---------|--------------7----------|-------------------------|
C#|--------10-------10------|--------7----------------|-------------------------|
G#|-------------------------|-------------------------|--9----------------------|
C#|--8-----------------8----|--5-----------------0----|--------12-0--10-12-0----|


D#|-------------------------|-------------------------|-------------------------|
A#|-------------------------|-------------------------|-------------------------|
F#|-------------------------|--10----10----x--10-x----|--7-----7-----x--7--x----|
C#|-------------------------|--8-----8-----x--8--x----|--5-----5-----x--5--x----|
G#|--9b---------------------|--8-----8-----x--8--x----|--5-----5-----x--5--x----|
C#|--------12-0--10-12-0----|--8-----8-----x--8--x----|--5-----5-----x--5--x----|


D#|-------------------------|-------------------------|-------------------------|
A#|-------------------------|-------------------------|-------------------------|
F#|-------------------------|--------11---------------|--------------12---------|
C#|-------------------------|-----10----12-10---------|--------10-------10------|
G#|--9-----------------9----|--12-------------12------|-------------------------|
C#|--------12-0--10-12------|-------------------------|--8-----------------8----|


D#|-------------------------|-------------------------|-------------------------|
A#|-------------------------|-------------------------|-------------------------|
F#|--------------7----------|-------------------------|-------------------------|
C#|--------7----------------|-------------------------|-------------------------|
G#|-------------------------|--9----------------------|--9b---------------------|
C#|--5-----------------0----|--------12-0--10-12-0----|--------12-0--10-12-0----|


D#|-------------------------|-------------------------|
A#|-------------------------|-------------------------|
F#|--10----10----x--10-x----|--7-----7-----x--7--x----|
C#|--8-----8-----x--8--x----|--5-----5-----x--5--x----|
G#|--8-----8-----x--8--x----|--5-----5-----x--5--x----|
C#|--8-----8-----x--8--x----|--5-----5-----x--5--x----|


D#|----------------------------------------|
A#|----------------------------------------|
F#|--------------------7-------------------|
C#|-----------7----------------------------|
G#|--5-----5g-------5g---------------------|
C#|----------------------------------------|


D#|----------------------------------------|
A#|----------------------------------------|
F#|--------------------7-------------------|
C#|-----------7----------------------------|
G#|--8-----8g-------8g---------------------|
C#|----------------------------------------|


D#|----------------------------------------|
A#|--------------------8-------------------|
F#|-----------7----------------------------|
C#|--5-----5g-------5g---------------------|
G#|----------------------------------------|
C#|----------------------------------------|


D#|----------------------------------------|
A#|-----------6--------8-----6-------------|
F#|--------7g----------------------7-------|
C#|--5--------------5g---------------------|
G#|----------------------------------------|
C#|----------------------------------------|


D#|----------------------------------------|
A#|----------------------------------------|
F#|--------------------9-----7-------------|
C#|-----------7--------------------7-------|
G#|--5-----5g-------5g---------------------|
C#|----------------------------------------|


D#|----------------------------------------|
A#|----------------------------------------|
F#|--------------------7-------------------|
C#|-----------7----------------------------|
G#|--8-----8g-------8g---------------------|
C#|----------------------------------------|


D#|----------------------------------------|
A#|--------------------8-------------------|
F#|-----------7--------------7-------------|
C#|--5-----5g-------5g-------------5-------|
G#|----------------------------------------|
C#|----------------------------------------|


D#|----------------------------------------|
A#|-----------6--------5-----6-------------|
F#|--------------------------------7-------|
C#|--5-----5g-------5g---------------------|
G#|----------------------------------------|
C#|----------------------------------------|


D#|--------------------------------------------------------------------------------|
A#|--------------------------------------------------------------------------------|
F#|--------------------------------------------------------------------------------|
C#|--------------------------------------------------------------------------7-----|
G#|--5-----------------------------------------------5g----------------------------|
C#|--------------------------------------------------------------------------------|


D#|--------------------------------------------------------------------------------|
A#|--------------------------------------------------------------------------------|
F#|------------------------------------------------------------------7h-------9h---|
C#|--------------------------------------------------------------------------------|
G#|------------------------------------------5g------------------------------------|
C#|--------------------------------------------------------------------------------|


D#|--------------------------------------------------------------------------------|
A#|--------------------------------------------------------------------------------|
F#|----7---------------------------------------------------------------------------|
C#|----------------------------------------------------7---------------------------|
G#|--------------------------------------------------------------------------------|
C#|--------------------------------------------------------------------------------|


D#|----------------------------------------------------------------------|
A#|----------------------------------------------------------------------|
F#|----------------------------------------------------------------------|
C#|----------------------------------------------------------------------|
G#|--------------------5-------------------------------------------------|
C#|----------------------------------------------------------------------|


D#|----------------------------------------|
A#|----------------------------------------|
F#|--------------------7-------------------|
C#|-----------7----------------------------|
G#|--8-----8--------8----------------------|
C#|----------------------------------------|


D#|----------------------------------------|
A#|--------------------8-------------------|
F#|-----------7--------------7-------------|
C#|--5-----5g-------5g-------------5-------|
G#|----------------------------------------|
C#|----------------------------------------|


D#|----------------------------------------|
A#|--------------------5-------------------|
F#|-----------7--------------7-------------|
C#|--5-----5--------5--------------5-------|
G#|----------------------------------------|
C#|----------------------------------------|


D#|----------------------------------------|
A#|----------------------------------------|
F#|-----------7--------9-----7-------------|
C#|--------------------------------7-------|
G#|--5-----5g-------5g---------------------|
C#|----------------------------------------|


D#|----------------------------------------|
A#|----------------------------------------|
F#|--------------------9-----7-------------|
C#|-----------7--------------------7-------|
G#|--8-----8g-------8g---------------------|
C#|----------------------------------------|


D#|----------------------------------------|
A#|--------------------8-------------------|
F#|-----------7--------------7-------------|
C#|--5-----5g-------5g-------------5-------|
G#|----------------------------------------|
C#|----------------------------------------|


D#|----------------------------------------|
A#|-----------6--------5-----6-------------|
F#|--------------------------------7-------|
C#|--5-----5--------5----------------------|
G#|----------------------------------------|
C#|----------------------------------------|


D#|--------------------------------------------------------------------------------|
A#|--------------------------------------------------------------------------------|
F#|--------------------------------------------------------------------------------|
C#|--------------------------------------------------------------------------------|
G#|--------------------------------------------------------------------------------|
C#|--0--x--x--0--x--x--x--0--x--x--0--x--x--x--0--x--x--0--x--x--x--0-----0--3--5--|


D#|--------------|
A#|--------------|
F#|--------------|
C#|--------------|
G#|3-------------|
C#|---5--3--0----|


D#|--------------------------------------------------------------------------------|
A#|--------------------------------------------------------------------------------|
F#|--------------------------------------------------------------------------------|
C#|--------------------------------------------------------------------------------|
G#|--------------------------------------------------------------------------------|
C#|--0--x--x--0--x--x--x--0--x--x--0--x--x--x--0--x--x--0--x--x--x--0-----0--3--5--|


D#|--------------|
A#|--------------|
F#|--------------|
C#|--------------|
G#|3-------------|
C#|---5--3--0----|


D#|--------------------------------------------------------------------------------|
A#|--------------------------------------------------------------------------------|
F#|--------------------------------------------------------------------------------|
C#|--------------------------------------------------------------------------------|
G#|--------------------------------------------------------------------------------|
C#|--0--x--x--0--x--x--x--0--x--x--0--x--x--x--0--x--x--0--x--x--x--0-----0--3--5--|


D#|--------------|
A#|--------------|
F#|--------------|
C#|--------------|
G#|3-------------|
C#|---5--3--0----|


D#|--------------------------------------------------------------------------------|
A#|--------------------------------------------------------------------------------|
F#|--------------------------------------------------------------------------------|
C#|--------------------------------------------------------------------------------|
G#|--------------------------------------------------------------------------------|
C#|--0--x--x--0--x--x--x--0--x--x--0--x--x--x--0--x--x--0--x--x--x--0-----0--3--5--|


D#|--------------||---------------------------|----------------------------|
A#|--------------||---------------------------|--------------10----10------|
F#|--------------||o------------7-------------|--------------10----10------|
C#|--------------||o------------7-------------|--------------8-----8-------|
G#|3--5--5--5----||-------------5-------------|--------------8-----8-------|
C#|--------------||-0-----0--------------0----|--0--0--5s----8-----8-------|


D#|----------------------------|----------------------------|
A#|----------------------------|----------------------------|
F#|----------------------------|----------------------------|
C#|--8-----8-----8-----x--x----|--5-----5-----5-----x--x----|
G#|--8-----8-----8-----x--x----|--5-----5-----5-----x--x----|
C#|--8-----8-----8-----x--x----|--5-----5-----5-----x--x----|


D#|----------------------------|----------------------------|
A#|----------------------------|----------------------------|
F#|-----3h-2-------------------|--------------7--------10L--|
C#|-----------3h-0-------------|--------------7--------10L--|
G#|-----------------0--3--0----|--3s-5--5-----5--------8L---|
C#|----------------------------|----------------------------|


D#|----------------------------|----------------------------|
A#|----------------------------|----------------------------|
F#|--10-10-10----10s12---------|----------------------------|
C#|--10-10-10----10s12-0--8L---|--8--8--8.----8h-10-0--5L---|
G#|--8--8--8-----8s-10-0--8L---|--8--8--8-----8--10-0--5L---|
C#|--------------------0--8L---|--8--8--8-----8h-10-0--5L---|


D#|---------------------------|||------------------------------|
A#|---------------------------|||-6-----6g-6-----6g-6----------|
F#|--------------------------o|||o7-----7g-7-----7g-7----------|
C#|--5-----------------------o|||o5-----5g-5-----5g-5----------|
G#|--5--0--3--5--5b----3--5---|||------------------------------|
C#|--5------------------------|||------------------------------|


D#|-------------------------------|-------------------------------|
A#|--5-----5g-5-----5g-5----------|--6-----6g-6-----6g-6----------|
F#|--7-----7g-7-----7g-7----------|--7-----7g-7-----7g-7----------|
C#|--5-----5g-5-----5g-5----------|--5-----5g-5-----5g-5----------|
G#|-------------------------------|-------------------------------|
C#|-------------------------------|-------------------------------|


D#|------------------------------||
A#|--8-----8g-8-----8g-8---------||
F#|--7-----7g-7-----7g-7--------o||
C#|--5-----5g-5-----5g-5--------o||
G#|------------------------------||
C#|------------------------------||


D#|--------------------------------------------------------------------------------|
A#|--------------------------------------------------------------------------------|
F#|--------------------------------------------------------------------------------|
C#|--------------------------------------------------------------------------------|
G#|--------------------------------------------------------------------------------|
C#|--0--x--x--0--x--x--x--0--x--x--0--x--x--x--0--x--x--0--x--x--x--0-----0--3--5--|


D#|--------------|
A#|--------------|
F#|--------------|
C#|--------------|
G#|3-------------|
C#|---5--3--0----|


D#|--------------------------------------------------------------------------------|
A#|--------------------------------------------------------------------------------|
F#|--------------------------------------------------------------------------------|
C#|--------------------------------------------------------------------------------|
G#|--------------------------------------------------------------------------------|
C#|--0-----x-----x-----0-----x-----x-----x-----0-----x-----x-----0-----x-----x-----|


D#|--------------------------------------------------------------------------------|
A#|--------------------------------------------------------------------------------|
F#|--------------------------------------------------------------------------------|
C#|--------------------------------------------------------------------------------|
G#|--------------------------------------------------------------------------------|
C#|x-----0-----x-----x-----0-----x-----x--x--x--x--0-------------------------------|


D#|------------------------||---------------------------|
A#|------------------------||---------------------------|
F#|------------------------||o------------7-------------|
C#|------------------------||o------------7-------------|
G#|------------------------||-------------5-------------|
C#|------------------------||-0-----0--------------0----|


D#|----------------------------|----------------------------|
A#|--------------10----10------|----------------------------|
F#|--------------10----10------|----------------------------|
C#|--------------8-----8-------|--8-----8-----8-----x--x----|
G#|--------------8-----8-------|--8-----8-----8-----x--x----|
C#|--0--0--5s----8-----8-------|--8-----8-----8-----x--x----|


D#|----------------------------|----------------------------|
A#|----------------------------|----------------------------|
F#|----------------------------|-----3h-2-------------------|
C#|--5-----5-----5-----x--x----|-----------3h-0-------------|
G#|--5-----5-----5-----x--x----|-----------------0--3--0----|
C#|--5-----5-----5-----x--x----|----------------------------|


D#|----------------------------|----------------------------|
A#|----------------------------|----------------------------|
F#|--------------7--------10L--|--10-10-10----10s12---------|
C#|--------------7--------10L--|--10-10-10----10s12-0--8L---|
G#|--3s-5--5-----5--------8L---|--8--8--8-----8s-10-0--8L---|
C#|----------------------------|--------------------0--8L---|


D#|----------------------------|---------------------------||
A#|----------------------------|---------------------------||
F#|----------------------------|--------------------------o||
C#|--8--8--8.----8h-10-0--5L---|--5-----------------------o||
G#|--8--8--8-----8--10-0--5L---|--5--0--3--5--5b----3--5---||
C#|--8--8--8-----8h-10-0--5L---|--5------------------------||


D#|--------------------------------------------------------------------------------|
A#|--------------------------------------------------------------------------------|
F#|--------------------------------------------------------------------------------|
C#|--------------------------10-------10-10-10-9--------9--9--9--8--------8--8--8--|
G#|--------8-----8s-10-------8--------8--8--8--7--------7--7--7--6--------5--5--5--|
C#|--5--5-----5--------x--x-----x--x--------------x--x--------------x--x-----------|


D#|--||---------------------------------------------|
A#|--||---------------------------------------------|
F#|--||o--------------------------------------------|
C#|--||o------------------------------10-------7----|
G#|--||-9--------------------------10-------5-------|
C#|--||-0-----12-10-12-------x--8--------5----------|


D#|----------------------------------------------------|
A#|----------------------------------------------------|
F#|----------------------------------------------------|
C#|--------------------------------10----7-------------|
G#|--9--------------------------10----------5----------|
C#|--0-----12-10-12-------x--8--------5--------5--5----|


D#|----------------------------------------------------|
A#|----------------------------------------------------|
F#|----------------------------------------------------|
C#|--------------------------------10----7--------8L---|
G#|--9--------------------------10----------5-----8L---|
C#|--0-----12-10-12-------x--8--------5--------5--8L---|


D#|---------------------------------------------------||
A#|---------------------------------------------------||
F#|--------------------------------------------------o||
C#|--8--8--8--8--x--3-----3--3--3--5--5--3--0--3--0--o||
G#|--8--8--8--8--x--3-----3--3--3--5--5--3--0--3--0---||
C#|--8--8--8--8--x--3-----3--3--3--5--5--3--0--3--0---||


D#|----------------------------------------------------|
A#|----------------------------------------------------|
F#|----------------------------------------------------|
C#|--8--8--8--8--x--3-----3--3--3--5--5--3--0----------|
G#|--8--8--8--8--x--3-----3--3--3--5--5--3--0----------|
C#|--8--8--8--8--x--3-----3--3--3--5--5--3--0--0.------|


D#|----------------------------------------------------||
A#|----------------------------------------------------||
F#|----------------------------------------------------||
C#|--------------------------------------5--5--5--5----||
G#|--------------------------------------3--3--3--3----||
C#|--x--3~----0.----0.----0--3--5--3--0----------------||


D#|---------------------------|----------------------------|
A#|---------------------------|--------------10----10------|
F#|o------------7-------------|--------------10----10------|
C#|o------------7-------------|--------------8-----8-------|
G#|-------------5-------------|--------------8-----8-------|
C#|-0-----0--------------0----|--0--0--5s----8-----8-------|


D#|----------------------------|----------------------------|
A#|----------------------------|----------------------------|
F#|----------------------------|----------------------------|
C#|--8-----8-----8-----x--x----|--5-----5-----5-----x--x----|
G#|--8-----8-----8-----x--x----|--5-----5-----5-----x--x----|
C#|--8-----8-----8-----x--x----|--5-----5-----5-----x--x----|


D#|----------------------------|----------------------------|
A#|----------------------------|----------------------------|
F#|-----3h-2-------------------|--------------7--------10L--|
C#|-----------3h-0-------------|--------------7--------10L--|
G#|-----------------0--3--0----|--3s-5--5-----5--------8L---|
C#|----------------------------|----------------------------|


D#|----------------------------|----------------------------|
A#|----------------------------|----------------------------|
F#|--10-10-10----10s12---------|----------------------------|
C#|--10-10-10----10s12-0--8L---|--8--8--8.----8h-10-0--5L---|
G#|--8--8--8-----8s-10-0--8L---|--8--8--8-----8--10-0--5L---|
C#|--------------------0--8L---|--8--8--8-----8h-10-0--5L---|


D#|---------------------------||-------------------------|
A#|---------------------------||-------------------------|
F#|--------------------------o||-------------------------|
C#|--5-----------------------o||-------------------------|
G#|--5--0--3--5--5b----3--5---||--9----------------------|
C#|--5------------------------||--------12-0--10-12-0----|


D#|-------------------------|-------------------------|-------------------------|
A#|-------------------------|-------------------------|-------------------------|
F#|-------------------------|--------------12---------|--------------7----------|
C#|-------------------------|--------10-------10------|--------7----------------|
G#|--9b---------------------|-------------------------|-------------------------|
C#|--------12-0--10-12-0----|--8-----------------8----|--5-----------------0----|


D#|-------------------------|-------------------------|-------------------------|
A#|-------------------------|-------------------------|-------------------------|
F#|-------------------------|-------------------------|--10----10----x--10-x----|
C#|-------------------------|-------------------------|--8-----8-----x--8--x----|
G#|--9----------------------|--9b---------------------|--8-----8-----x--8--x----|
C#|--------12-0--10-12-0----|--------12-0--10-12-0----|--8-----8-----x--8--x----|


D#|-------------------------|-------------------------|-------------------------|
A#|-------------------------|-------------------------|-------------------------|
F#|--7-----7-----x--7--x----|-------------------------|--------11---------------|
C#|--5-----5-----x--5--x----|-------------------------|-----10----12-10---------|
G#|--5-----5-----x--5--x----|--9-----------------9----|--12-------------12------|
C#|--5-----5-----x--5--x----|--------12-0--10-12------|-------------------------|


D#|-------------------------|-------------------------|-------------------------|
A#|-------------------------|-------------------------|-------------------------|
F#|--------------12---------|--------------7----------|-------------------------|
C#|--------10-------10------|--------7----------------|-------------------------|
G#|-------------------------|-------------------------|--9----------------------|
C#|--8-----------------8----|--5-----------------0----|--------12-0--10-12-0----|


D#|-------------------------|-------------------------|-------------------------||
A#|-------------------------|-------------------------|-------------------------||
F#|-------------------------|--10----10----x--10-x----|--7-----7-----x--7--x----||
C#|-------------------------|--8-----8-----x--8--x----|--5-----5-----x--5--x----||
G#|--9b---------------------|--8-----8-----x--8--x----|--5-----5-----x--5--x----||
C#|--------12-0--10-12-0----|--8-----8-----x--8--x----|--5-----5-----x--5--x----||



************************************

x - dead note
h - hammer on/pull off
b - bend
s - slide
~ - vibrato
g - ghost note
> - accentuated note
t - trill
M - palm mute
. - staccato
P - popping (bass)
S - slapping (bass)
+ - tapping
W - wide vibrato
< - fade in
w - whammy bar
= - tremolo picking
v - brush up
^ - brush down
V - pick stroke up
n - pick stroke down

************************************

            
            
Suggest correction
Creating personal tab
Creating personal tab
You can edit any tab online and save it as your Personal.

You can edit, replace or remove any tab part or add personal notes – all changes will be seen only by you.

Personal tabs can be accessed anytime from any device, even offline.
Learn more »
Give kudos to tab author, rate the tab!
1 2 3 4 5
comments
print report bad tab
guest
You may want to rate the tab now too:
select rating
Wanna post a correction for this tab? Suggest correction