Oops, an error
Loading. Please wait.

Zuhause tab

5,376 views 27 this week
2 commentsread comments
1 2 3 4 5
x 7
add to favorites
×
Save as Personal and add changes to this tab that will be seen only by you. Learn more ›
×
You can save this tab as Personal to edit and correct it or add notes. All changes will be seen only by you. Learn more »
launch autoscroll
font size
0
reset
how to read this tab
guitar tuner
edit
Autoscroll
slow
fast
+/-
esc
set tempo
stop
Song: Zuhause
Album: Bis auf den Grund
The original is in the key of F#m. 
Put a capo on 2 to match the record.

e|-------------------|-----------------|-----------------|----------------|
B|----0--------0-----|-----0-------0---|-----0-------0---|-----0------0---|
G|----0--------0-----|-----0-------0---|-----0-------0---|-----0------0---|.
D|-------2--------0--|-------2-------2-|--------2------2-|-------2------2-|.
A|-------------------|--3-------3------|-----------------|----------------|
E|-0--------0--------|-----------------|--3--------3-----|--2-------2-----|

This repeats throughout the whole song.


tab by Corny

            
            
Suggest correction
Creating personal tab
Creating personal tab
You can edit any tab online and save it as your Personal.

You can edit, replace or remove any tab part or add personal notes – all changes will be seen only by you.

Personal tabs can be accessed anytime from any device, even offline.
Learn more »
comments
print report bad tab
2 comments total.
-1 reply
almostcorny 31 Jun 27, 2013 05:43 AM

e|-------------------|-----------------|-----------------|----------------|
B|----0--------0-----|-----0-------0---|-----0-------0---|-----0------0---|
G|----0--------0-----|-----0-------0---|-----0-------0---|-----0------0---|.
D|-------2--------0--|-------2-------2-|--------2------2-|-------2------2-|.
A|-------------------|--3-------3------|-----------------|----------------|
E|-0--------0--------|-----------------|--3--------3-----|--2-------2-----|

0 reply
braatz.florian 10 Jul 10, 2017 08:03 AM

Do you know any other songs that repeat throughout all the song?

guest
You may want to rate the tab now too:
select rating
Wanna post a correction for this tab? Suggest correction