Oops, an error
Loading. Please wait.

Stone The Crow tab

version 4
version 4

Whole song

Interactive

by Down
43,653 views 75 this week
no commentswrite comment
1 2 3 4 5
x 8
add to favorites
×
Save as Personal and add changes to this tab that will be seen only by you. Learn more ›
×
You can save this tab as Personal to edit and correct it or add notes. All changes will be seen only by you. Learn more »
launch autoscroll
font size
0
reset
how to read this tab
guitar tuner
backing track
0:00
0:00
edit
Autoscroll
slow
fast
+/-
esc
set tempo
stop
none of the tabbed versions of this song have it done in the tuning it's
supposed to be in yet, so i gave it a shot.  it's not completely right but
close enough for me.  you'll have to listen to the song to figure out what
tabs are for what parts.  it's pretty straight forward though.  oh, and i
haven't taken the time to tab out the solo yet.

tune down to C#

brp = bend release pull off


 [intro/verse] - pepper's part
C#|----------------------------------------------------------------|
F#|G#----------------------------------------------------------------|
B |E ---------------------------------------------------5------------|
E |B -5h7---7\5---3h5~~~-5-----3h5brp3p0-0-------3h5/7----7\5-3-3h5--|
G#|F#-----5-----3----------3h5-------------0-3h5---------------------|
C#|----------------------------------------------------------------|


   this part is played 2 different ways
C#|--------------------|-------------------|
F#|--------------------|-------------------|
B |--------------------|-------------------|
E |--5p3-5br-3h5-5br-3-|--5p3-5br-3h5-3----|
G#|--------------------|----------------5--|
C#|--------------------|-------------------|


   [intro/verse] - kirk's part
C#|--------------------------------------------------------------------------------------|
F#|--------------------------------------------------------------------------------------|
B |----------------------------------------------------------------------------------7-7-|
E |-10/12~~~12/14~~~14-14br-14-14br-14-14br-12\10--etc-etc--10h12p-10----------------7-7-|
G#|-------------------------------------------------------------------12---10-10-8-8-5-5-|
C#|--------------------------------------------------------------------------------------|


   [chorus] - kirk's part
C#|------------------------------------------------------------------------|
F#|------------------------------------------------------------------------|
B |-7-7-----10-10---12---7-------------7-7---------------------7-----------|
E |-7-7-x-x-10-10-x-12-x-7--------0h3--7-7-x-x-3-3-x-x-5-x-3-x-7-------0h3-|
G#|-5-5-x-x-8--8--x-10-x-5----0h3------5-5-x-x-3-3-x-x-5-x-3-x-5---0h3-----|
C#|--------------------------------------------1-1-----3---1---------------|


   [chorus] - pepper's part
C#|-------------------------------------------3-------------------------------------|
F#|-3-3-----------------5---3-3---------------3------------------------3------------|
B |-2-2-0h2p0---0-------4---2-2-------------2----0h2p0---0-------------2------------|
E |-0-0-------3---3-3/5---0-0-0-----0h3-0-0------------3---3-3/5-5-5-0-0------0h3-0-|
G#|-----------------------------0h3---------------------------------------0h3-------|
C#|---------------------------------------------------------------------------------|

C#|------------------------------------------------|
F#|-------13---------------------------------------|
B |-12/14----14\12-10-12~~~-------10h12brp10-------|
E |-------------------------10h12------------12-12-|
G#|------------------------------------------------|
C#|------------------------------------------------|


C#|-----------------------------------------------------|
F#|-------13--------------------------------------------|
B |-12/14----14\12-10-12~~~-12p10-12br12--10h12-10~~----|
E |--------------------------------------------------12-|
G#|-----------------------------------------------------|
C#|-----------------------------------------------------|

C#|-----------------------------------------------------------------------------------------|
F#|-----------------------------------------------------------------------------------------|
B |-----------------------------------------------------------------------------------------|
E |---------3---3h5~~~-----3h5brp3p0-0-----------------3---3h5~~~-5p3-5br5-3h5-3------------|
G#|-----3h5---5--------3h5-----------------12\-----3h5---5------------------------5~~---12\-|
C#|-3h5----------------------------------------3h5------------------------------------------|


   last chords
C#|--------------|
F#|--------------|
B |-12---10---7\-|
E |-12-x-10-x-7\-|
G#|-10-x-8--x-5\-|
C#|--------------|



************************************

| x   Dead note
| h   Hammer-on
| p   Pull-off
| br  Bend release
| /   Slide up
| \   Slide down
| ~   Vibrato

************************************

            
            
Suggest correction
Creating personal tab
Creating personal tab
You can edit any tab online and save it as your Personal.

You can edit, replace or remove any tab part or add personal notes – all changes will be seen only by you.

Personal tabs can be accessed anytime from any device, even offline.
Learn more »
comments
print report bad tab
guest
You may want to rate the tab now too:
select rating
Wanna post a correction for this tab? Suggest correction