Oops, an error
Loading. Please wait.

Dutchman Falls chords

by Dr. Dog
193 views 1 this week
no commentswrite comment
1 2 3 4 5
2 more votes to show rating
add to favorites
×
Save as Personal and add changes to this tab that will be seen only by you. Learn more ›
×
You can save this tab as Personal to edit and correct it or add notes. All changes will be seen only by you. Learn more »
launch autoscroll
font size
0
reset
transpose
0
reset
simplify chords
display chords
guitar tuner
edit
Autoscroll
slow
fast
+/-
esc
set tempo
stop
Strumming
There is no strumming pattern for this song yet. and get +5 IQ
Bb       A              Ab
Oh, in the cornfield beneath
        G
Hangman Street
Eb              E
Is a rock with some initials
F                 Eb
And beneath it is me

          Bb             A                    Ab         G
I need all your forgiveness and most of your love
Eb
You see, the hangman
E
You saw hanging
        F               Eb
That wasn't who I was

       Cm        Bb

But nobody noticed
Ab              Eb
Nobody cared but me
E|--------------------|
B|--------------------|
G|--------------------|
D|--------3--5--5\7v--|
A|-----4--------------|
E|--5-----------------|


Bb              A
Well, I knew she'd been unfaithful
          Ab            G
But he knew she had to pay
Eb              E
So I grew to be more like him
F               Eb
With each passing of each Day

Bb              A
But I slipped out on some side Road
Ab      G
I thought things I'd never dared
Eb                  E
So I went to a toolshed
F                Eb
Put shlack in my hand

Cm                  Bb
Oh, but nobody noticed
Ab                           Eb
Nobody cared but me
Eb7M    Cm     C
Oh, oh, ohhh..
          Ab
Well, I came to touch Dutchman Falls
             Cm         Bb
With my hatchet and my dog
F
Well, she must have raised her hands

I must have cut her down like cake


And you know the man I was

He left me long enough

Was sad enough to say


[Solo]

Eb Ab F
Eb Ab  F
Bb A Ab G
Eb E F Eb

E|---------------------------------------------------------------|
B|---------------------------------------------------------------|
G|--12--12--12--12--12--12--12--12--12--12--12--12--12b14b12-----|
D|---------------------------------------------------------------|
A|---------------------------------------------------------------|
E|---------------------------------------------------------------|

E|-----------------------------------------------------------------------|
B|-----------------------------------------------------------------------|
G|--12-12-12-12h13--13--13--13--13s16--16--16--16--16b17-17b16-----------|
D|-----------------------------------------------------------------------|
A|-----------------------------------------------------------------------|
E|-----------------------------------------------------------------------|

E|---------------------------------------|
B|---------------------------------------|
G|--12-12-12-12--12s13-14-13-----10~~----|
D|---------------------------------------|
A|---------------------------------------|
E|---------------------------------------|


E|----------------------------------------------------------------------------|
B|--/11--13--11---------------------------------------------------------------|
G|--------------14----------14--12--10--13--15--13--12------------------------|
D|------------------15--17------------------------------12--------------------|
A|----------------------------------------------------------14--10--14--------|
E|----------------------------------------------------------------------------|


E|-----------------------------------------------------------------------|
B|------------------------------------------------------------10---------|
G|----------12----------12---------------------------8--10------8--10----|
D|--12--13------13--14------14--15---------------------------------------|
A|-------------------------------------------12/7------------------------|
E|-----------------------------------------------------------------------|

Bb           A
Now we were a virtue
Ab                            G
In pride and murder sin
Eb                  E
I have no need for redemption
F                 Eb
I had no need for you


******************************************************
| ~     vibrato
| b     bend
| h     hammer-on
| /     slide-up
******************************************************

            
            
Suggest correction
Creating personal tab
Creating personal tab
You can edit any tab online and save it as your Personal.

You can edit, replace or remove any tab part or add personal notes – all changes will be seen only by you.

Personal tabs can be accessed anytime from any device, even offline.
Learn more »
Give kudos to tab author, rate the tab!
1 2 3 4 5
comments
print report bad tab
guest
You may want to rate the tab now too:
select rating
Wanna post a correction for this tab? Suggest correction