Oops, an error
Loading. Please wait.

Shame Shame tab

by Dr. Dog
145 views 9 this week
no commentswrite comment
1 2 3 4 5
3 more votes to show rating
add to favorites
×
Save as Personal and add changes to this tab that will be seen only by you. Learn more ›
×
You can save this tab as Personal to edit and correct it or add notes. All changes will be seen only by you. Learn more »
launch autoscroll
font size
0
reset
how to read this tab
guitar tuner
edit
Autoscroll
slow
fast
+/-
esc
set tempo
stop
Author
Difficulty
About this tab version
Tried to make the fingerings for the chords mimic the song/background vocals but if you play any of the more typical fingerings for the chords it still works. Was this info helpful? Yes No
[Chords]
e|---2---|---0---|---x---|---3---|---0---|---3---|---2---|---5---|---3---|---0---|
B|---3---|---0---|---3---|---3---|---1---|---2---|---3---|---3---|---6---|---2---|
G|---0---|---0---|---2---|---0---|---2---|---2---|---2---|---4---|---4---|---2---|
D|---0---|---2---|---0---|---0---|---2---|---2---|---0---|---3---|---3---|---2---|
A|---2---|---2---|---x---|---2---|---0---|---0---|--(0)--|---5---|---5---|---0---|
E|---3---|---0---|---x---|---3---|---0---|---0---|---x---|---3---|---3---|---0---|
   Gmaj7    Em       D5      G      Am       A7      D      Gm9      G7      A

[Chords]
e|---0---|----2----|---0---|---0---|
B|---3---|----3----|---3---|---3---|
G|---0---|----0----|---2---|---0---|
D|---2---|----0----|---2---|---0---|
A|---3---|----2----|---0---|---2---|
E|---x---|----x----|---x---|---0---|
   Cadd9    G7M/B    Asus4    Em7      

[Intro]   
(organ chords Gmaj7          Em            D5                        Gmaj7)
e|---15\12--12/14---15\12--12/14--15\12--12/14-14\10--12/14--14/15--10/14----7/10--|
B|---13\10--10/12---13\10--10/12--13\10--10/12-12\10--10/12--12/13--10/12----8/12--|
G|---------------------------------------------------------------------------9/11--|
D|---------------------------------------------------------------------------9/12--|
A|---------------------------------------------------------------------------7/10--|
E|---------------------------------------------------------------------------7/10--|

[Verse 1]
Gmaj7                                   Gmaj7
(shame, shame) I was a loner unloved; I really didn't need any help at all
        Em                                        Em
(shame, shame) I really thought I was fine, I was living it up just to spite myself
        D5                                     D5     
(shame, shame) I used to wander the streets at midnight...
                      G                                 G       Gmaj7
avoiding any signs of life                             (shame,  shame)

                     e|-----8/10--8---7/8--7--5/7--5\2--2/3--3\2---|
                     B|----10/12--10--8/10-8--7/8--7\3--3/5--5\3---|
                     G|--------------------------------------------|
                     D|--------------------------------------------|
                     A|--------------------------------------------|
                     E|--------------------------------------------|

[Verse 2]
        Gmaj7                            Gmaj7
               I used to suffer alone; I really did think it would make me strong
        Em                                        Em
(shame, shame) I used to write it all down hoping someone would read it years from now
        D5                                   D5
(shame, shame) I used to act like I was in a movie, 
                          G                              G     Gmaj7
so mysterious and misunderstood                         (shame,shame)

             e|-----------------10----8---7---5--3---2-----------|
             B|---5/-------8----10/12\10--7/8\7--3/5\3---1/---3--|
             G|---2/-------7-----------------------------2/---4--|
             D|--------------------------------------------------|
             A|--------------------------------------------------|
             E|--------------------------------------------------|

[Verse 3]
        Gmaj7                                Gmaj7
               You started hanging around, I really didn't think i could live it down
        Em                                  Em
(shame, shame) I tried to play it cool, but every single part of me felt so good
        D5                                          D Cadd9  GM7/B  Asus4     G  Em7  G
(shame, shame) You took me someplace I'd never been before, I was a foreigner in your hands 

                                                                                 e|-5/10---|
                                                                                 B|-5/8----|
                                                                                 G|--------|
                                                                                 D|--------|
                                                                                 A|--------|
                                                                                 E|--------|
        
                                     Am                          A7      D       D     D     D
                                        I just couldn't...let it go 'til now

e|--19\15--15\12--12\10--10\7--7\5--5/8----------------7\5-----5/9---|
B|--20\17--17\13--13\12--12\8--8\7--7/10---------------8\7-----7/10--|
G|-------------------------------------------------------------------|
D|-------------------------------------------------------------------|
A|-------------------------------------------------------------------|
E|-------------------------------------------------------------------|

[Bridge]
D                   D
 A letter unopened.....just like a knock on the door
Gm9                                  G7
   Oh, do you think you're so special that no one knows what you’re for?
            Em                        A                    D
Well you can mutter on sweet nothings...like you're on the other side of town
D                               D
 And do you fear the attachment...to things that you want?
Gm9                              G7
And do you want to cut off things for fear of their love?
           Em                          A        D
Well you can roll off to the graveyard, oh, and let them take you whole
  Em                            A                      D                       D  Cadd9  GM7/B  Asus4
Or, you can live it up no(w), oh, and leave, and leave nothing but your bones

[Verse 4]
G  Em7  Gmaj7                                  Gmaj7
(shame, shame) I didn't know what to do; I was losing myself turning into you
        Em                              Em
(shame, shame) I was really undone; the life that I’d lived seemed so useless now
        D5                             D Cadd9 GM7/B  Asus4 G Em7    Gmaj7
(shame, shame) You know you made me do it....and no I don't regret a thing
        Gmaj7          Em             D5     D Cadd9 GM7/B Asus4 G Em7  Gmaj7
(shame, shame...shame, shame...shame, shame)
        Gmaj7          Em             D5     D Cadd9 GM7/B Asus4 G Em7  Gmaj7  
(shame, shame...shame, shame...shame, shame...)

************************************

| x    Dead note
| (n)  Ghost note
| /    Slide up
| \    Slide down

************************************

            
            
Suggest correction
Creating personal tab
Creating personal tab
You can edit any tab online and save it as your Personal.

You can edit, replace or remove any tab part or add personal notes – all changes will be seen only by you.

Personal tabs can be accessed anytime from any device, even offline.
Learn more »
Give kudos to tab author, rate the tab!
1 2 3 4 5
comments
print report bad tab
guest
You may want to rate the tab now too:
select rating
Wanna post a correction for this tab? Suggest correction