Oops, an error
Loading. Please wait.

She Does It Right tab

version 1
version 1

Whole song

Interactive

43,798 views 42 this week
1 commentread comment
1 2 3 4 5
x 9
add to favorites
×
Save as Personal and add changes to this tab that will be seen only by you. Learn more ›
×
You can save this tab as Personal to edit and correct it or add notes. All changes will be seen only by you. Learn more »
launch autoscroll
font size
0
reset
how to read this tab
guitar tuner
backing track
0:00
0:00
edit
Autoscroll
slow
fast
+/-
esc
set tempo
stop
Author
Difficulty
[Intro]
             G  G  G  G  G  G  G  G                      G  G  G   
             v  ^  v  ^  v  ^  v  ^                      ^  v  ^   
             E  E  E  E  E  E  E  E     E    E  E  E  E  E  E  E   
e|-------|--3--x--x--3--3--x--3--x--|-------------------x--3--x--|
B|-------|--3--x--x--3--3--x--3--x--|-------------------x--3--x--|
G|-------|--4--x--x--4--4--x--4--x--|--5br--5--3--------x--4--x--|
D|-------|--5--x--x--5--5--x--5--x--|-------------5-----x--5--x--|
A|-------|--5--x--x--5--5--x--5--x--|-------------------x--5--x--|
E|-------|--------------------------|----------------------------|

    G  G  G  G  G  G  G  G                      G  G  G   
    v  ^  v  ^  v  ^  v  ^                      ^  v  ^   
    E  E  E  E  E  E  E  E     E    E  E  E  E  E  E  E   
e|--3--3--x--3--3--x--3--x--|-------------------x--3--x--|
B|--3--3--x--3--3--x--3--x--|-------------------x--3--x--|
G|--4--4--x--4--4--x--4--x--|--5br--5--3--------x--4--x--|
D|--5--5--x--5--5--x--5--x--|-------------5-----x--5--x--|
A|--5--5--x--5--5--x--5--x--|-------------------x--5--x--|
E|--------------------------|----------------------------|

    G  G  G  G  G  G  G  G                      G  G  G   
    v  ^  v  ^  v  ^  v  ^                      ^  v  ^   
    E  E  E  E  E  E  E  E     E    E  E  E  E  E  E  E   
e|--3--x--x--3--3--x--3--3--|-------------------x--3--x--|
B|--3--x--x--3--3--x--3--3--|-------------------x--3--x--|
G|--4--x--x--4--4--x--4--4--|--5br--5--3--------x--4--x--|
D|--5--x--x--5--5--x--5--5--|-------------5-----x--5--x--|
A|--5--x--x--5--5--x--5--5--|-------------------x--5--x--|
E|--------------------------|----------------------------|

    G  G  G  G  G  G  G  G                      G  G  G   
    v  ^  v  ^  v  ^  v  ^                      ^  v  ^   
    E  E  E  E  E  E  E  E     E    E  E  E  E  E  E  E   
e|--3--x--x--3--3--x--3--x--|-------------------x--3--x--|
B|--3--x--x--3--3--x--3--x--|-------------------x--3--x--|
G|--4--x--x--4--4--x--4--x--|--5br--5--3--------x--4--x--|
D|--5--x--x--5--5--x--5--x--|-------------5-----x--5--x--|
A|--5--x--x--5--5--x--5--x--|-------------------x--5--x--|
E|--------------------------|----------------------------|

[Verse]
     G  G  G  G  G  G  G  G                      G  G  G   
     v  ^  v  ^  v  ^  v  ^                      ^  v  ^   
     E  E  E  E  E  E  E  E     E    E  E  E  E  E  E  E   
e|---3--3--x--3--3--x--3--x--|-------------------x--3--x--|
B|---3--3--x--3--3--x--3--x--|-------------------x--3--x--|
G|*--4--4--x--4--4--x--4--x--|--5br--5--3--------x--4--x--|
D|*--5--5--x--5--5--x--5--x--|-------------5-----x--5--x--|
A|---5--5--x--5--5--x--5--x--|-------------------x--5--x--|
E|---------------------------|----------------------------|

    G  G  G  G  G  G  G  G                      G  G  G   
    v  ^  v  ^  v  ^  v  ^                      ^  v  ^   
    E  E  E  E  E  E  E  E     E    E  E  E  E  E  E  E   
e|--3--x--x--3--3--x--3--x--|-------------------x--3--x--|
B|--3--x--x--3--3--x--3--x--|-------------------x--3--x--|
G|--4--x--x--4--4--x--4--x--|--5br--5--3--------x--4--x--|
D|--5--x--x--5--5--x--5--x--|-------------5-----x--5--x--|
A|--5--x--x--5--5--x--5--x--|-------------------x--5--x--|
E|--------------------------|----------------------------|

    G  G  G  G  G  G  G  G                      G  G  G   
    v  ^  v  ^  v  ^  v  ^                      ^  v  ^   
    E  E  E  E  E  E  E  E     E    E  E  E  E  E  E  E   
e|--3--x--x--3--x--x--3--x--|-------------------x--3--x--|
B|--3--x--x--3--x--x--3--x--|-------------------x--3--x--|
G|--4--x--x--4--x--x--4--x--|--5br--5--3--------x--4--x--|
D|--5--x--x--5--x--x--5--x--|-------------5-----x--5--x--|
A|--5--x--x--5--x--x--5--x--|-------------------x--5--x--|
E|--------------------------|----------------------------|

    G  G  G  G  G  G  G  G                      G  G  G   
    v  ^  v  ^  v  ^  v  ^                      ^  v  ^   
    E  E  E  E  E  E  E  E     E    E  E  E  E  E  E  E   
e|--3--x--x--3--3--x--3--x--|-------------------x--3--x--|
B|--3--x--x--3--3--x--3--x--|-------------------x--3--x--|
G|--4--x--x--4--4--x--4--x--|--5br--5--3--------x--4--x--|
D|--5--x--x--5--5--x--5--x--|-------------5-----x--5--x--|
A|--5--x--x--5--5--x--5--x--|-------------------x--5--x--|
E|--------------------------|----------------------------|

[Chorus]
     C   C   C   C   C   C   C   C                         G  G  G   
     v   ^   v   ^   v   ^   v   ^                         ^  v  ^   
     E   E   E   E   E   E   E   E      E     E  E   E  E  E  E  E   
e|---8---x---8---x---8---8---x---8--|----------------------x--3--x--|
B|---8---x---8---x---8---8---x---8--|----------------------x--3--x--|
G|---9---x---9---x---9---9---x---9--|--10br--10--8---------x--4--x--|
D|--10---x--10---x--10--10---x--10--|---------------10-----x--5--x--|
A|--10---x--10---x--10--10---x--10--|----------------------x--5--x--|
E|----------------------------------|-------------------------------|

    G  G  G  G  G  G  G  G                      G  G  G   
    v  ^  v  ^  v  ^  v  ^                      ^  v  ^   
    E  E  E  E  E  E  E  E     E    E  E  E  E  E  E  E   
e|--3--3--x--3--3--x--3--x--|-------------------3--3--x--|
B|--3--3--x--3--3--x--3--x--|-------------------3--3--x--|
G|--4--4--x--4--4--x--4--x--|--5br--5--3--------4--4--x--|
D|--5--5--x--5--5--x--5--x--|-------------5-----5--5--x--|
A|--5--5--x--5--5--x--5--x--|-------------------5--5--x--|
E|--------------------------|----------------------------|

     D   D   D   D   D   D   D   D      C   C   C   C   C   C   C   C   
     v   ^   v   ^   v   ^   v   ^      v   ^   v   ^   v   ^   v   ^   
     E   E   E   E   E   E   E   E      E   E   E   E   E   E   E   E   
e|--10--10---x---x--10---x--10---x--|---8---x---8---x---8---8---x---8--|
B|--10--10---x---x--10---x--10---x--|---8---x---8---x---8---8---x---8--|
G|--11--11---x---x--11---x--11---x--|---9---x---9---x---9---9---x---9--|
D|--12--12---x---x--12---x--12---x--|--10---x--10---x--10--10---x--10--|
A|--12--12---x---x--12---x--12---x--|--10---x--10---x--10--10---x--10--|
E|----------------------------------|----------------------------------|

     D   D   D   D   D   D   D   D      C   C   C   C   C   C   C   C   
     v   ^   v   ^   v   ^   v   ^      v   ^   v   ^   v   ^   v   ^   
     E   E   E   E   E   E   E   E      E   E   E   E   E   E   E   E   
e|---x--10--10---x--10---x--10---x--|---8---8---x---x---8---x---x---8--|
B|---x--10--10---x--10---x--10---x--|---8---8---x---x---8---x---x---8--|
G|---x--11--11---x--11---x--11---x--|---9---9---x---x---9---x---x---9--|
D|---x--12--12---x--12---x--12---x--|--10--10---x---x--10---x---x--10--|
A|---x--12--12---x--12---x--12---x--|--10--10---x---x--10---x---x--10--|
E|----------------------------------|----------------------------------|

    G  G  G  G  G  G  G  G                      G  G  G   
    v  ^  v  ^  v  ^  v  ^                      ^  v  ^   
    E  E  E  E  E  E  E  E     E    E  E  E  E  E  E  E   
e|--3--x--x--3--3--x--3--x--|-------------------x--3--x--|
B|--3--x--x--3--3--x--3--x--|-------------------x--3--x--|
G|--4--x--x--4--4--x--4--x--|--5br--5--3--------x--4--x--|
D|--5--x--x--5--5--x--5--x--|-------------5-----x--5--x--|
A|--5--x--x--5--5--x--5--x--|-------------------x--5--x--|
E|--------------------------|----------------------------|

[Ending 1]                                       (Start over from verse)
    G  G  G  G  G  G  G  G                      G  G  G     
    v  ^  v  ^  v  ^  v  ^                      ^  v  ^     
    E  E  E  E  E  E  E  E     E    E  E  E  E  E  E  E     
e|--3--x--x--3--3--x--3--x--|-------------------x--3--x---|
B|--3--x--x--3--3--x--3--x--|-------------------x--3--x---|
G|--4--x--x--4--4--x--4--x--|--5br--5--3--------x--4--x--*|
D|--5--x--x--5--5--x--5--x--|-------------5-----x--5--x--*|
A|--5--x--x--5--5--x--5--x--|-------------------x--5--x---|
E|--------------------------|-----------------------------|

[Verse]
     G  G  G  G  G  G  G  G                      G  G  G   
     v  ^  v  ^  v  ^  v  ^                      ^  v  ^   
     E  E  E  E  E  E  E  E     E    E  E  E  E  E  E  E   
e|---3--3--x--3--3--x--3--x--|-------------------x--3--x--|
B|---3--3--x--3--3--x--3--x--|-------------------x--3--x--|
G|*--4--4--x--4--4--x--4--x--|--5br--5--3--------x--4--x--|
D|*--5--5--x--5--5--x--5--x--|-------------5-----x--5--x--|
A|---5--5--x--5--5--x--5--x--|-------------------x--5--x--|
E|---------------------------|----------------------------|

    G  G  G  G  G  G  G  G                      G  G  G   
    v  ^  v  ^  v  ^  v  ^                      ^  v  ^   
    E  E  E  E  E  E  E  E     E    E  E  E  E  E  E  E   
e|--3--x--x--3--3--x--3--x--|-------------------x--3--x--|
B|--3--x--x--3--3--x--3--x--|-------------------x--3--x--|
G|--4--x--x--4--4--x--4--x--|--5br--5--3--------x--4--x--|
D|--5--x--x--5--5--x--5--x--|-------------5-----x--5--x--|
A|--5--x--x--5--5--x--5--x--|-------------------x--5--x--|
E|--------------------------|----------------------------|

    G  G  G  G  G  G  G  G                      G  G  G   
    v  ^  v  ^  v  ^  v  ^                      ^  v  ^   
    E  E  E  E  E  E  E  E     E    E  E  E  E  E  E  E   
e|--3--x--x--3--x--x--3--x--|-------------------x--3--x--|
B|--3--x--x--3--x--x--3--x--|-------------------x--3--x--|
G|--4--x--x--4--x--x--4--x--|--5br--5--3--------x--4--x--|
D|--5--x--x--5--x--x--5--x--|-------------5-----x--5--x--|
A|--5--x--x--5--x--x--5--x--|-------------------x--5--x--|
E|--------------------------|----------------------------|

    G  G  G  G  G  G  G  G                      G  G  G   
    v  ^  v  ^  v  ^  v  ^                      ^  v  ^   
    E  E  E  E  E  E  E  E     E    E  E  E  E  E  E  E   
e|--3--x--x--3--3--x--3--x--|-------------------x--3--x--|
B|--3--x--x--3--3--x--3--x--|-------------------x--3--x--|
G|--4--x--x--4--4--x--4--x--|--5br--5--3--------x--4--x--|
D|--5--x--x--5--5--x--5--x--|-------------5-----x--5--x--|
A|--5--x--x--5--5--x--5--x--|-------------------x--5--x--|
E|--------------------------|----------------------------|

[Chorus]
     C   C   C   C   C   C   C   C                         G  G  G   
     v   ^   v   ^   v   ^   v   ^                         ^  v  ^   
     E   E   E   E   E   E   E   E      E     E  E   E  E  E  E  E   
e|---8---x---8---x---8---8---x---8--|----------------------x--3--x--|
B|---8---x---8---x---8---8---x---8--|----------------------x--3--x--|
G|---9---x---9---x---9---9---x---9--|--10br--10--8---------x--4--x--|
D|--10---x--10---x--10--10---x--10--|---------------10-----x--5--x--|
A|--10---x--10---x--10--10---x--10--|----------------------x--5--x--|
E|----------------------------------|-------------------------------|

    G  G  G  G  G  G  G  G                      G  G  G   
    v  ^  v  ^  v  ^  v  ^                      ^  v  ^   
    E  E  E  E  E  E  E  E     E    E  E  E  E  E  E  E   
e|--3--3--x--3--3--x--3--x--|-------------------3--3--x--|
B|--3--3--x--3--3--x--3--x--|-------------------3--3--x--|
G|--4--4--x--4--4--x--4--x--|--5br--5--3--------4--4--x--|
D|--5--5--x--5--5--x--5--x--|-------------5-----5--5--x--|
A|--5--5--x--5--5--x--5--x--|-------------------5--5--x--|
E|--------------------------|----------------------------|

     D   D   D   D   D   D   D   D      C   C   C   C   C   C   C   C   
     v   ^   v   ^   v   ^   v   ^      v   ^   v   ^   v   ^   v   ^   
     E   E   E   E   E   E   E   E      E   E   E   E   E   E   E   E   
e|--10--10---x---x--10---x--10---x--|---8---x---8---x---8---8---x---8--|
B|--10--10---x---x--10---x--10---x--|---8---x---8---x---8---8---x---8--|
G|--11--11---x---x--11---x--11---x--|---9---x---9---x---9---9---x---9--|
D|--12--12---x---x--12---x--12---x--|--10---x--10---x--10--10---x--10--|
A|--12--12---x---x--12---x--12---x--|--10---x--10---x--10--10---x--10--|
E|----------------------------------|----------------------------------|

     D   D   D   D   D   D   D   D      C   C   C   C   C   C   C   C   
     v   ^   v   ^   v   ^   v   ^      v   ^   v   ^   v   ^   v   ^   
     E   E   E   E   E   E   E   E      E   E   E   E   E   E   E   E   
e|---x--10--10---x--10---x--10---x--|---8---8---x---x---8---x---x---8--|
B|---x--10--10---x--10---x--10---x--|---8---8---x---x---8---x---x---8--|
G|---x--11--11---x--11---x--11---x--|---9---9---x---x---9---x---x---9--|
D|---x--12--12---x--12---x--12---x--|--10--10---x---x--10---x---x--10--|
A|---x--12--12---x--12---x--12---x--|--10--10---x---x--10---x---x--10--|
E|----------------------------------|----------------------------------|

    G  G  G  G  G  G  G  G                      G  G  G   
    v  ^  v  ^  v  ^  v  ^                      ^  v  ^   
    E  E  E  E  E  E  E  E     E    E  E  E  E  E  E  E   
e|--3--x--x--3--3--x--3--x--|-------------------x--3--x--|
B|--3--x--x--3--3--x--3--x--|-------------------x--3--x--|
G|--4--x--x--4--4--x--4--x--|--5br--5--3--------x--4--x--|
D|--5--x--x--5--5--x--5--x--|-------------5-----x--5--x--|
A|--5--x--x--5--5--x--5--x--|-------------------x--5--x--|
E|--------------------------|----------------------------|

[Ending 2]
    G  G  G  G  G  G  G  G                      G  G  G   
    v  ^  v  ^  v  ^  v  ^                      ^  v  ^   
    E  E  E  E  E  E  E  E     E    E  E  E  E  E  E  E   
e|--3--x--x--3--3--x--3--x--|-------------------x--3--3--|
B|--3--x--x--3--3--x--3--x--|-------------------x--3--3--|
G|--4--x--x--4--4--x--4--x--|--5br--5--3--------x--4--4--|
D|--5--x--x--5--5--x--5--x--|-------------5-----x--5--5--|
A|--5--x--x--5--5--x--5--x--|-------------------x--5--5--|
E|--------------------------|----------------------------|

[Solo chords]
     C   C   C   C   C   C   C   C      C   C   C   C   C   C   C   C   
     v   ^   v   ^   v   ^   v   ^      v   ^   v   ^   v   ^   v   ^   
     E   E   E   E   E   E   E   E      E   E   E   E   E   E   E   E   
e|---8---x---8---x---8---8---x---8--|---8---x---8---x---8---8---x---8--|
B|---8---x---8---x---8---8---x---8--|---8---x---8---x---8---8---x---8--|
G|---9---x---9---x---9---9---x---9--|---9---x---9---x---9---9---x---9--|
D|--10---x--10---x--10--10---x--10--|--10---x--10---x--10--10---x--10--|
A|--10---x--10---x--10--10---x--10--|--10---x--10---x--10--10---x--10--|
E|----------------------------------|----------------------------------|

    G  G  G  G  G  G  G  G     G  G  G  G  G  G  G  G   
    v  ^  v  ^  v  ^  v  ^     v  ^  v  ^  v  ^  v  ^   
    E  E  E  E  E  E  E  E     E  E  E  E  E  E  E  E   
e|--3--x--x--3--3--x--3--x--|--3--x--x--3--3--x--3--x--|
B|--3--x--x--3--3--x--3--x--|--3--x--x--3--3--x--3--x--|
G|--4--x--x--4--4--x--4--x--|--4--x--x--4--4--x--4--x--|
D|--5--x--x--5--5--x--5--x--|--5--x--x--5--5--x--5--x--|
A|--5--x--x--5--5--x--5--x--|--5--x--x--5--5--x--5--x--|
E|--------------------------|--------------------------|

     C   C   C   C   C   C   C   C      C   C   C   C   C   C   C   C   
     v   ^   v   ^   v   ^   v   ^      v   ^   v   ^   v   ^   v   ^   
     E   E   E   E   E   E   E   E      E   E   E   E   E   E   E   E   
e|---8---x---8---x---8---8---x---8--|---8---x---8---x---8---8---x---8--|
B|---8---x---8---x---8---8---x---8--|---8---x---8---x---8---8---x---8--|
G|---9---x---9---x---9---9---x---9--|---9---x---9---x---9---9---x---9--|
D|--10---x--10---x--10--10---x--10--|--10---x--10---x--10--10---x--10--|
A|--10---x--10---x--10--10---x--10--|--10---x--10---x--10--10---x--10--|
E|----------------------------------|----------------------------------|

     D   D   D   D   D   D   D   D      D   D   D   D   D   D   D   D   
     v   ^   v   ^   v   ^   v   ^      v   ^   v   ^   v   ^   v   ^   
     E   E   E   E   E   E   E   E      E   E   E   E   E   E   E   E   
e|---x--10--10---x--10---x--10---x--|---x--10--10---x--10---x--10---x--|
B|---x--10--10---x--10---x--10---x--|---x--10--10---x--10---x--10---x--|
G|---x--11--11---x--11---x--11---x--|---x--11--11---x--11---x--11---x--|
D|---x--12--12---x--12---x--12---x--|---x--12--12---x--12---x--12---x--|
A|---x--12--12---x--12---x--12---x--|---x--12--12---x--12---x--12---x--|
E|----------------------------------|----------------------------------|

    G  G  G  G  G  G  G  G                      G  G  G   
    v  ^  v  ^  v  ^  v  ^                      v  v  ^   
    E  E  E  E  E  E  E  E     E    E  E  E  E  E  E  E   
e|--3--x--x--3--3--x--3--x--|-------------------3--3--x--|
B|--3--x--x--3--3--x--3--x--|-------------------3--3--x--|
G|--4--x--x--4--4--x--4--x--|--5br--5--3--------4--4--x--|
D|--5--x--x--5--5--x--5--x--|-------------5-----5--5--x--|
A|--5--x--x--5--5--x--5--x--|-------------------5--5--x--|
E|--------------------------|----------------------------|

    G  G  G  G  G  G  G  G                      G  G  G   
    v  ^  v  ^  v  ^  v  ^                      ^  v  ^   
    E  E  E  E  E  E  E  E     E    E  E  E  E  E  E  E   
e|--3--x--x--3--3--x--3--x--|-------------------x--3--x--|
B|--3--x--x--3--3--x--3--x--|-------------------x--3--x--|
G|--4--x--x--4--4--x--4--x--|--5br--5--3--------x--4--x--|
D|--5--x--x--5--5--x--5--x--|-------------5-----x--5--x--|
A|--5--x--x--5--5--x--5--x--|-------------------x--5--x--|
E|--------------------------|----------------------------|

[Solo]
    H        E  E  E  E     E    E  E  E  E  E  E  E   
e|-----------------------|----------------------------|
B|-----------------------|----------3--6--6--6--3--6--|
G|--------------5--5--3--|--5br--5--------------------|
D|-----------------------|----------------------------|
A|-----------------------|----------------------------|
E|-----------------------|----------------------------|

    E  E  E  E  E  E  E  E     E    E    E  E  E    E  E  E   
e|--3--6--3-----3--6--3-----|--------------------------------|
B|-----------6-----------6--|--------------------------------|
G|--------------------------|--5br--5br--3-----5br--5--3-----|
D|--------------------------|---------------5-------------5--|
A|--------------------------|--------------------------------|
E|--------------------------|--------------------------------|

    E    E  E  E  E  E  E  E     E    E  E  E  E  E  E    E   
e|----------------------------|------------------------------|
B|-------------------------3--|------------------------------|
G|--5br--5--3--------3--5-----|--5br--5--3--------3--5br--5--|
D|-------------5--5-----------|-------------5--5-------------|
A|----------------------------|------------------------------|
E|----------------------------|------------------------------|

    E  E  E  E  E  E  E  E     E  E  E  E  E    E  E    E   
e|--------------------------|------------------------------|
B|-----------------------3--|--3--3--6--3--3br--3--3br--3--|
G|--3-----3-----3--3--5-----|------------------------------|
D|-----5-----5--------------|------------------------------|
A|--------------------------|------------------------------|
E|--------------------------|------------------------------|

    E  E  E  E  E  E  E    E
e|----------------------------|
B|--3--6--6--6--6--3----------|
G|--------------------5br--3--|
D|----------------------------|
A|----------------------------|
E|----------------------------|

[Verse]
     G  G  G  G  G  G  G  G                      G  G  G   
     v  ^  v  ^  v  ^  v  ^                      ^  v  ^   
     E  E  E  E  E  E  E  E     E    E  E  E  E  E  E  E   
e|---3--3--x--3--3--x--3--x--|-------------------x--3--x--|
B|---3--3--x--3--3--x--3--x--|-------------------x--3--x--|
G|*--4--4--x--4--4--x--4--x--|--5br--5--3--------x--4--x--|
D|*--5--5--x--5--5--x--5--x--|-------------5-----x--5--x--|
A|---5--5--x--5--5--x--5--x--|-------------------x--5--x--|
E|---------------------------|----------------------------|

    G  G  G  G  G  G  G  G                      G  G  G   
    v  ^  v  ^  v  ^  v  ^                      ^  v  ^   
    E  E  E  E  E  E  E  E     E    E  E  E  E  E  E  E   
e|--3--x--x--3--3--x--3--x--|-------------------x--3--x--|
B|--3--x--x--3--3--x--3--x--|-------------------x--3--x--|
G|--4--x--x--4--4--x--4--x--|--5br--5--3--------x--4--x--|
D|--5--x--x--5--5--x--5--x--|-------------5-----x--5--x--|
A|--5--x--x--5--5--x--5--x--|-------------------x--5--x--|
E|--------------------------|----------------------------|

    G  G  G  G  G  G  G  G                      G  G  G   
    v  ^  v  ^  v  ^  v  ^                      ^  v  ^   
    E  E  E  E  E  E  E  E     E    E  E  E  E  E  E  E   
e|--3--x--x--3--x--x--3--x--|-------------------x--3--x--|
B|--3--x--x--3--x--x--3--x--|-------------------x--3--x--|
G|--4--x--x--4--x--x--4--x--|--5br--5--3--------x--4--x--|
D|--5--x--x--5--x--x--5--x--|-------------5-----x--5--x--|
A|--5--x--x--5--x--x--5--x--|-------------------x--5--x--|
E|--------------------------|----------------------------|

    G  G  G  G  G  G  G  G                      G  G  G   
    v  ^  v  ^  v  ^  v  ^                      ^  v  ^   
    E  E  E  E  E  E  E  E     E    E  E  E  E  E  E  E   
e|--3--x--x--3--3--x--3--x--|-------------------x--3--x--|
B|--3--x--x--3--3--x--3--x--|-------------------x--3--x--|
G|--4--x--x--4--4--x--4--x--|--5br--5--3--------x--4--x--|
D|--5--x--x--5--5--x--5--x--|-------------5-----x--5--x--|
A|--5--x--x--5--5--x--5--x--|-------------------x--5--x--|
E|--------------------------|----------------------------|

[Chorus]
     C   C   C   C   C   C   C   C                         G  G  G   
     v   ^   v   ^   v   ^   v   ^                         ^  v  ^   
     E   E   E   E   E   E   E   E      E     E  E   E  E  E  E  E   
e|---8---x---8---x---8---8---x---8--|----------------------x--3--x--|
B|---8---x---8---x---8---8---x---8--|----------------------x--3--x--|
G|---9---x---9---x---9---9---x---9--|--10br--10--8---------x--4--x--|
D|--10---x--10---x--10--10---x--10--|---------------10-----x--5--x--|
A|--10---x--10---x--10--10---x--10--|----------------------x--5--x--|
E|----------------------------------|-------------------------------|

    G  G  G  G  G  G  G  G                      G  G  G   
    v  ^  v  ^  v  ^  v  ^                      ^  v  ^   
    E  E  E  E  E  E  E  E     E    E  E  E  E  E  E  E   
e|--3--3--x--3--3--x--3--x--|-------------------3--3--x--|
B|--3--3--x--3--3--x--3--x--|-------------------3--3--x--|
G|--4--4--x--4--4--x--4--x--|--5br--5--3--------4--4--x--|
D|--5--5--x--5--5--x--5--x--|-------------5-----5--5--x--|
A|--5--5--x--5--5--x--5--x--|-------------------5--5--x--|
E|--------------------------|----------------------------|

     D   D   D   D   D   D   D   D      C   C   C   C   C   C   C   C   
     v   ^   v   ^   v   ^   v   ^      v   ^   v   ^   v   ^   v   ^   
     E   E   E   E   E   E   E   E      E   E   E   E   E   E   E   E   
e|--10--10---x---x--10---x--10---x--|---8---x---8---x---8---8---x---8--|
B|--10--10---x---x--10---x--10---x--|---8---x---8---x---8---8---x---8--|
G|--11--11---x---x--11---x--11---x--|---9---x---9---x---9---9---x---9--|
D|--12--12---x---x--12---x--12---x--|--10---x--10---x--10--10---x--10--|
A|--12--12---x---x--12---x--12---x--|--10---x--10---x--10--10---x--10--|
E|----------------------------------|----------------------------------|

     D   D   D   D   D   D   D   D      C   C   C   C   C   C   C   C   
     v   ^   v   ^   v   ^   v   ^      v   ^   v   ^   v   ^   v   ^   
     E   E   E   E   E   E   E   E      E   E   E   E   E   E   E   E   
e|---x--10--10---x--10---x--10---x--|---8---8---x---x---8---x---x---8--|
B|---x--10--10---x--10---x--10---x--|---8---8---x---x---8---x---x---8--|
G|---x--11--11---x--11---x--11---x--|---9---9---x---x---9---x---x---9--|
D|---x--12--12---x--12---x--12---x--|--10--10---x---x--10---x---x--10--|
A|---x--12--12---x--12---x--12---x--|--10--10---x---x--10---x---x--10--|
E|----------------------------------|----------------------------------|

    G  G  G  G  G  G  G  G                      G  G  G   
    v  ^  v  ^  v  ^  v  ^                      ^  v  ^   
    E  E  E  E  E  E  E  E     E    E  E  E  E  E  E  E   
e|--3--x--x--3--3--x--3--x--|-------------------x--3--x--|
B|--3--x--x--3--3--x--3--x--|-------------------x--3--x--|
G|--4--x--x--4--4--x--4--x--|--5br--5--3--------x--4--x--|
D|--5--x--x--5--5--x--5--x--|-------------5-----x--5--x--|
A|--5--x--x--5--5--x--5--x--|-------------------x--5--x--|
E|--------------------------|----------------------------|

[Solo]
    H        E  E  E  E     E    E  E  E  E  E  E  E   
e|-----------------------|----------------------------|
B|-----------------------|----------3--6--6--6--3--6--|
G|--------------5--5--3--|--5br--5--------------------|
D|-----------------------|----------------------------|
A|-----------------------|----------------------------|
E|-----------------------|----------------------------|

    E  E  E  E  E  E  E  E     E    E    E  E  E    E  E  E   
e|--3--6--3-----3--6--3-----|--------------------------------|
B|-----------6-----------6--|--------------------------------|
G|--------------------------|--5br--5br--3-----5br--5--3-----|
D|--------------------------|---------------5-------------5--|
A|--------------------------|--------------------------------|
E|--------------------------|--------------------------------|

    E    E  E  E  E  E  E  E     E    E  E  E  E  E  E    E   
e|----------------------------|------------------------------|
B|-------------------------3--|------------------------------|
G|--5br--5--3--------3--5-----|--5br--5--3--------3--5br--5--|
D|-------------5--5-----------|-------------5--5-------------|
A|----------------------------|------------------------------|
E|----------------------------|------------------------------|

    E  E  E  E  E  E  E  E     E  E  E  E  E    E  E    E   
e|--------------------------|------------------------------|
B|-----------------------3--|--3--3--6--3--3br--3--3br--3--|
G|--3-----3-----3--3--5-----|------------------------------|
D|-----5-----5--------------|------------------------------|
A|--------------------------|------------------------------|
E|--------------------------|------------------------------|

    E  E  E  E  E  E  E    E
e|----------------------------|
B|--3--6--6--6--6--3----------|
G|--------------------5br--3--|
D|----------------------------|
A|----------------------------|
E|----------------------------|

[Outro] (x2)
     G  G  G  G  G  G  G  G                      G  G  G   
     v  ^  v  ^  v  ^  v  ^                      ^  v  ^   
     E  E  E  E  E  E  E  E     E    E  E  E  E  E  E  E   
e|---3--x--x--3--3--x--3--x--|-------------------x--3--x--|
B|---3--x--x--3--3--x--3--x--|-------------------x--3--x--|
G|*--4--x--x--4--4--x--4--x--|--5br--5--3--------x--4--x--|
D|*--5--x--x--5--5--x--5--x--|-------------5-----x--5--x--|
A|---5--x--x--5--5--x--5--x--|-------------------x--5--x--|
E|---------------------------|----------------------------|

    G  G  G  G  G  G  G  G                      G  G  G   
    v  ^  v  ^  v  ^  v  ^                      ^  v  ^   
    E  E  E  E  E  E  E  E     E    E  E  E  E  E  E  E   
e|--3--3--x--3--3--x--3--x--|-------------------x--3--x--|
B|--3--3--x--3--3--x--3--x--|-------------------x--3--x--|
G|--4--4--x--4--4--x--4--x--|--5br--5--3--------x--4--x--|
D|--5--5--x--5--5--x--5--x--|-------------5-----x--5--x--|
A|--5--5--x--5--5--x--5--x--|-------------------x--5--x--|
E|--------------------------|----------------------------|

    G  G  G  G  G  G  G  G                      G  G  G   
    v  ^  v  ^  v  ^  v  ^                      ^  v  ^   
    E  E  E  E  E  E  E  E     E    E  E  E  E  E  E  E   
e|--3--x--x--3--3--x--3--3--|-------------------x--3--x--|
B|--3--x--x--3--3--x--3--3--|-------------------x--3--x--|
G|--4--x--x--4--4--x--4--4--|--5br--5--3--------x--4--x--|
D|--5--x--x--5--5--x--5--5--|-------------5-----x--5--x--|
A|--5--x--x--5--5--x--5--5--|-------------------x--5--x--|
E|--------------------------|----------------------------|

[Ending 1]
    G  G  G  G  G  G  G  G                      G  G  G     
    v  ^  v  ^  v  ^  v  ^                      ^  v  ^     
    E  E  E  E  E  E  E  E     E    E  E  E  E  E  E  E     
e|--3--x--x--3--3--x--3--x--|-------------------x--3--x---|
B|--3--x--x--3--3--x--3--x--|-------------------x--3--x---|
G|--4--x--x--4--4--x--4--x--|--5br--5--3--------x--4--x--*|
D|--5--x--x--5--5--x--5--x--|-------------5-----x--5--x--*|
A|--5--x--x--5--5--x--5--x--|-------------------x--5--x---|
E|--------------------------|-----------------------------|

[Ending 2]
    E    E  E  E  H          
e|-------------------------|
B|-------------------------|
G|--5br--5--3--------------|
D|-------------5—let ring--|
A|-------------------------|
E|-------------------------|


************************************

| x   Dead note
| br  Bend release
| *   Natural harmonic

************************************

            
            
Suggest correction
Creating personal tab
Creating personal tab
You can edit any tab online and save it as your Personal.

You can edit, replace or remove any tab part or add personal notes – all changes will be seen only by you.

Personal tabs can be accessed anytime from any device, even offline.
Learn more »
comments
print report bad tab
1 comment total.
0 reply
guitarist gibo 10 May 21, 2010 05:13 AM

chords are not the same as Wilko plays them..

guest
You may want to rate the tab now too:
select rating
Wanna post a correction for this tab? Suggest correction