Oops, an error
Loading. Please wait.

Hard Time bass

242 views 1 this week
no commentswrite comment
1 2 3 4 5
2 more votes to show rating
add to favorites
×
Save as Personal and add changes to this tab that will be seen only by you. Learn more ›
×
You can save this tab as Personal to edit and correct it or add notes. All changes will be seen only by you. Learn more »
launch autoscroll
font size
0
reset
guitar tuner
edit
Autoscroll
slow
fast
+/-
esc
set tempo
stop
Difficulty
intermediate
Artist: Dr Manhattan
Album:Jam Dreams
Song:Hard Time
Key:Eb (Well, really it's a Bb mixolydian, but don't worry about it)
Time Signature: 4/4


(Intro)
G---------------------------------|
D---------------------------------|
A-1-1-1-1---------1-1-1-1---------|
E---------1-1-1-1---------1-1-1-1-|
(Main Riff)
G-3331----------------------------1|
D-----3330111----------------13333-| (This is what makes up most of the song,
A------------3111-----1111333------|  So just kinda play it by ear going into
E----------------31113-------------|  other sections and back into this one.)
(about 1:03 it goes into..)
G----------------|
D-1-1-1-1-1-1-1-1|                       (the top is the actual bass part,
A----------------|                     the bottom is the left hand of piano)
E----------------|
Or
G-------------------|
D---33--33--33--33--|
A-11--11--11--11--1-|
E-------------------|
(Then back to main riff, then about 1:52 it goes into)
G-----------------|
D-1-1-1-1-1-1-1-1-|
A-----------------|
E-----------------|
(then)
G------------------------------31---|
D-------------------------1------30-|
A-1--3----1--3----1--3--------------|
E-----1--3----1--3----1--3----------|
(and repeat that in till the outro, which is...)
G--------------------------------|
D--------------------------------|
A-1-1-1-1---------1-1-1-1--------|
E---------1-1-1-1---------1-1-1--|

Have fun playing this really awesome bass part, it's one of my favorites, not to
hard, but just fun to play!

            
            
Suggest correction
Creating personal tab
Creating personal tab
You can edit any tab online and save it as your Personal.

You can edit, replace or remove any tab part or add personal notes – all changes will be seen only by you.

Personal tabs can be accessed anytime from any device, even offline.
Learn more »
Give kudos to tab author, rate the tab!
1 2 3 4 5
comments
print report bad tab
guest
Wanna post a correction for this tab? Suggest correction