Oops, an error
Loading. Please wait.

Prepare For War bass

version 1
version 1

Whole song

Interactive

402 views 1 this week
no commentswrite comment
1 2 3 4 5
3 more votes to show rating
add to favorites
×
Save as Personal and add changes to this tab that will be seen only by you. Learn more ›
×
You can save this tab as Personal to edit and correct it or add notes. All changes will be seen only by you. Learn more »
launch autoscroll
font size
0
reset
guitar tuner
backing track
0:00
0:00
edit
Autoscroll
slow
fast
+/-
esc
set tempo
stop
#----------------------------------PLEASE NOTE---------------------------------#
#This file is the author's own work and represents their interpretation of the #
#song. You may only use this file for private study, scholarship, or research. #
#------------------------------------------------------------------------------#

PREPARE FOR WAR (Bassline)
As recorded by DragonForce
(From the 2006 Album SONIC FIRESTORM)

Transcribed by Holy_Thunder
	



Gtr I (E A D G) - 'Bass'
Gtr II (E A D G B E) - 'Ensemble'

 Intro
  Q=100
 4/4
  Gtr I
  E Q.   E Q.     E Q.   T T T T T T T T T T T T T T T T   E Q.   E Q.
|---------------|----------------------------------------|----------------|
|---------------|----------------------------------------|----------------|
|-7------3------|-7------5-5-5-5-5-5-5-5-5-5-5-5-5-5-5-5-|-7------3-------|
|---------------|----------------------------------------|----------------|
|
| Gtr II
| E Q.   E Q.     E Q.   H                                 E Q.   E Q.
|-7------3------|-7------5-------------------------------|-7------3-------|
|-8------5------|-8------7-------------------------------|-8------5-------|
|-9------5------|-9------7-------------------------------|-9------5-------|
|-9------5------|-9------7-------------------------------|-9------5-------|
|-7------3------|-7------5-------------------------------|-7------3-------|
|---------------|----------------------------------------|----------------|


  H    T T T T T T T T T T T T T T T T
|--------------------------------------|
|--------------------------------------|
|-0----2-2-2-2-2-2-2-2-2-2-2-2-2-2-2-2-|
|--------------------------------------|
|
| H    H
|-0----2-------------------------------|
|-1----3-------------------------------|
|-2----4-------------------------------|
|-2----4-------------------------------|
|-0----2-------------------------------|
|--------------------------------------|


  S T T T T T T T T T T T T T T S T T T T S T T T T T T T T
|-----------------------------------------------------------|
|-----------------------------------------------------------|
|-7-7-7-7-7-7-7-7-7-7-7-7-7-7-7-3-3-3-3-3-3-3-3-3-3-3-3-3-3-|
|-----------------------------------------------------------|
|
| H                             H
|-7-----------------------------3---------------------------|
|-8-----------------------------5---------------------------|
|-9-----------------------------5---------------------------|
|-9-----------------------------5---------------------------|
|-7-----------------------------3---------------------------|
|-----------------------------------------------------------|


  S T T T T T T T T T T T T T T S T T T T S T T T T T T T T
|-----------------------------------------------------------|
|-----------------------------------------------------------|
|-7-7-7-7-7-7-7-7-7-7-7-7-7-7-7-5-5-5-5-5-5-5-5-5-5-5-5-5-5-|
|-----------------------------------------------------------|
|
| H                             H
|-7-----------------------------5---------------------------|
|-8-----------------------------7---------------------------|
|-9-----------------------------7---------------------------|
|-9-----------------------------7---------------------------|
|-7-----------------------------5---------------------------|
|-----------------------------------------------------------|


  S T T T T T T T T T T T T T T S T T T T S T T T T T T T T
|-----------------------------------------------------------|
|-----------------------------------------------------------|
|-7-7-7-7-7-7-7-7-7-7-7-7-7-7-7-3-3-3-3-3-3-3-3-3-3-3-3-3-3-|
|-----------------------------------------------------------|
|
| H                             H
|-7-----------------------------3---------------------------|
|-8-----------------------------5---------------------------|
|-9-----------------------------5---------------------------|
|-9-----------------------------5---------------------------|
|-7-----------------------------3---------------------------|
|-----------------------------------------------------------|


  S T T T T T T T T T T T T T T T T T T T T T T T T T T T T T T
|---------------------------------------------------------------|
|---------------------------------------------------------------|
|-2-2-2-2-2-2-2-2-2-2-2-2-2-2-2-3-3-3-3-3-3-3-3-5-5-5-5-5-5-5-5-|
|---------------------------------------------------------------|
|
| H                             Q               Q
|-2-----------------------------3---------------5---------------|
|-3-----------------------------5---------------7---------------|
|-4-----------------------------5---------------7---------------|
|-4-----------------------------5---------------7---------------|
|-2-----------------------------3---------------5---------------|
|---------------------------------------------------------------|


  S T T T T T T T T T T T T T T S T T T T S T T T T T T T T
|-----------------------------------------------------------|
|-----------------------------------------------------------|
|-7-7-7-7-7-7-7-7-7-7-7-7-7-7-7-3-3-3-3-3-3-3-3-3-3-3-3-3-3-|
|-----------------------------------------------------------|
|
| H                             H
|-7-----------------------------3---------------------------|
|-8-----------------------------5---------------------------|
|-9-----------------------------5---------------------------|
|-9-----------------------------5---------------------------|
|-7-----------------------------3---------------------------|
|-----------------------------------------------------------|


  S T T T T T T T T T T T T T T S T T T T S T T T T T T T T
|-----------------------------------------------------------|
|-----------------------------------------------------------|
|-7-7-7-7-7-7-7-7-7-7-7-7-7-7-7-9-9-9-9-9-9-9-9-9-9-9-9-9-9-|
|-----------------------------------------------------------|
|
| H                             H
|-7-----------------------------5---------------------------|
|-8-----------------------------7---------------------------|
|-9-----------------------------7---------------------------|
|-9-----------------------------7---------------------------|
|-7-----------------------------5---------------------------|
|-----------------------------------------------------------|


  S T T T T T T T T T T T T T T S T T T T S T T T T T T T T
|-----------------------------------------------------------|
|-----------------------------------------------------------|
|-7-7-7-7-7-7-7-7-7-7-7-7-7-7-7-3-3-3-3-3-3-3-3-3-3-3-3-3-3-|
|-----------------------------------------------------------|
|
| H                             H
|-7-----------------------------3---------------------------|
|-8-----------------------------5---------------------------|
|-9-----------------------------5---------------------------|
|-9-----------------------------5---------------------------|
|-7-----------------------------3---------------------------|
|-----------------------------------------------------------|


  T T T T T T T T T T T T T T T T T T T T T T T T T T T T T T T T
|------------------------------------------------------------------||
|------------------------------------------------------------------||
|-0-0-0-0-0-0-0-0-0-0-0-0-0-0-0-0-2-2-2-2-2-2-2-2-2-2-2-2-2-2-2-2--||
|------------------------------------------------------------------||
|
| H                               H
|-0-------------------------------2--------------------------------||
|-1-------------------------------3--------------------------------||
|-2-------------------------------4--------------------------------||
|-2-------------------------------4--------------------------------||
|-0-------------------------------2--------------------------------||
|------------------------------------------------------------------||


 Heavey
  E Q.   E E. S S S   E Q.    T T T T T T T T T T T T T T T T
|-------------------|-----------------------------------------|
|-------------------|---------------------4-7-4---4-----------|
|-7------7----5---5-|-7---------0-3-6-3-6-------6---6-3-6-3---|
|-------------------|---------2-----------------------------5-|
|
| E Q.   E E. S S S   E H..
|-7------7----5---5-|-7---------------------------------------|
|-------------------|-----------------------------------------|
|-9------9----7---7-|-9---------------------------------------|
|-9------9----7---7-|-9---------------------------------------|
|-7------7----5---5-|-7---------------------------------------|
|-0------0----------|-0---------------------------------------|


  E S S S T T T T S E S S S E S
|-------------------------------|
|-------------------------------|
|---------0-3-6-3-0-----------0-|
|-0-0-0-2-----------0-0-0-0-3---|


  E S S S T T T T S T T T T T T T T T T T T T T T T
|---------------------------------------------------|
|-------------------------------4-7-4---4-----------|
|---------0-3-6-3-0---0-3-6-3-6-------6---6-3-6-3---|
|-0-0-0-2-----------2-----------------------------5-|


  E S S S T T T T S E S S S E S
|-------------------------------|
|-------------------------------|
|---------0-3-6-3-0-----------0-|
|-0-0-0-2-----------0-0-0-0-3---|


  E S S S T T T T S T T T T T T T T T T T T T T T T
|---------------------------------------------------|
|-------------------------------4-7-4---4-----------|
|---------0-3-6-3-0---0-3-6-3-6-------6---6-3-6-3---|
|-0-0-0-2-----------2-----------------------------5-|


  T T T T T T T T T T T T T T T T  T  T T T  T  T  T  T  Q    W
|---------------------5-8-----5-8-11-14-5-8-11-14-17-20-----|------||
|---------4-7-----4-7-----4-7---------------------------16--|------||
|-----3-6-----3-6-------------------------------------------|------||
|-2-5-------------------------------------------------------|------||


 Verse
  S  S S T T S S E T  T S S T T S S E
|-------------------------------------|
|-------------------------------------|
|-0--0---0-0-0-0---0--0-0---0-0-0-0-7-|
|----------------3--------------------|
|
| Gtr II
| Q.             E Q.               E
|-------------------------------------|
|-------------------------------------|
|-2----------------2------------------|
|-2--------------5-2----------------9-|
|-0--------------5-0----------------7-|
|----------------3------------------0-|


  T  T S S T T S S E T T S S T T S S S S
|------------------------------------------|
|------------------------------------------|
|-0--0-0---0-0-0-0-------------------------|
|------------------3-1-1-1---1-1-1---1-----|
|
| Q.               E H
|------------------------------------------|
|------------------------------------------|
|-2----------------------------------------|
|-2----------------5-3---------------------|
|-0----------------5-3---------------------|
|------------------3-1---------------------|


  S  S S T T S S E T  T S S T T S S E
|-------------------------------------|
|-------------------------------------|
|-0--0---0-0-0-0---0--0-0---0-0-0-0-7-|
|----------------3--------------------|
|
| Q.             E Q.               E
|-------------------------------------|
|-------------------------------------|
|-2----------------2------------------|
|-2--------------5-2----------------9-|
|-0--------------5-0----------------7-|
|----------------3------------------0-|


  S S S S S S S S T T T T T T T T T T T T T T T T
|---------------------------------------------------|
|---------------------------------------------------|
|---------------------------------------------------|
|-1-1-1-1-1-1-1-1-3-3-3-3-3-3-3-3-3-3-3-3-3-3-3-3---|
|
| H               H
|-1---------------3---------------------------------|
|-1---------------3---------------------------------|
|-2---------------4---------------------------------|
|-3---------------5---------------------------------|
|-3---------------5---------------------------------|
|-1---------------3---------------------------------|


  T  T T T T T T T T T T T E T  T T T T T T T T T T T E
|-------------------------------------------------------|
|-------------------------------------------------------|
|-0--0-0-0-0-0-0-0-0-0-0-0---0--0-0-0-0-0-0-0-0-0-0-0-7-|
|--------------------------3----------------------------|
|
| Q.                       E Q.                       E
|-------------------------------------------------------|
|-------------------------------------------------------|
|-2--------------------------2--------------------------|
|-2------------------------5-2------------------------9-|
|-0------------------------5-0------------------------7-|
|--------------------------3--------------------------0-|


  T  T T T T T T T T T T T E T T T T T T T T T T T T E
|------------------------------------------------------|
|------------------------------------------------------|
|-0--0-0-0-0-0-0-0-0-0-0-0-----------------------------|
|--------------------------3-1-1-1-1-1-1-1-1-1-1-1-1-1-|
|
| Q.                       E H
|------------------------------------------------------|
|------------------------------------------------------|
|-2----------------------------------------------------|
|-2------------------------5-3-------------------------|
|-0------------------------5-3-------------------------|
|--------------------------3-1-------------------------|


  T  T T T T T T T T T T T E T  T T T T T T T T T T T E
|-------------------------------------------------------|
|-------------------------------------------------------|
|-0--0-0-0-0-0-0-0-0-0-0-0---0--0-0-0-0-0-0-0-0-0-0-0-7-|
|--------------------------3----------------------------|
|
| Q.                       E Q.                       E
|-------------------------------------------------------|
|-------------------------------------------------------|
|-2--------------------------2--------------------------|
|-2------------------------5-2------------------------9-|
|-0------------------------5-0------------------------7-|
|--------------------------3--------------------------0-|


  T T T T T T T T T T T T T T T T T T T T T T T T T T T T T T T T
|-----------------------------------------------------------------|
|-----------------------------------------------------------------|
|-----------------------------------------------------------------|
|-1-1-1-1-1-1-1-1-1-1-1-1-1-1-1-1-3-3-3-3-3-3-3-3-3-3-3-3-3-3-3-3-|
|
| H                               H
|-1-------------------------------3-------------------------------|
|-1-------------------------------3-------------------------------|
|-2-------------------------------4-------------------------------|
|-3-------------------------------5-------------------------------|
|-3-------------------------------5-------------------------------|
|-1-------------------------------3-------------------------------|


  S S S S S S S S S S S S S S S S   S S S S S S S S S S S S S S S S
|---------------------------------|---------------------------------|
|---------------------------------|---------------------------------|
|---------------------------------|-0-0-0-0-0-0-0-0-0-0-0-0-0-0-0-0-|
|-1-1-1-1-1-1-1-1-1-1-1-1-1-1-1-1-|---------------------------------|
|
| W                                 W
|-1-------------------------------|-0-------------------------------|
|-1-------------------------------|-1-------------------------------|
|-2-------------------------------|-2-------------------------------|
|-3-------------------------------|-2-------------------------------|
|-3-------------------------------|-0-------------------------------|
|-1-------------------------------|---------------------------------|


  S S S S S S S S S S S S S S S S
|---------------------------------|
|---------------------------------|
|---------------------------------|
|-1-1-1-1-1-1-1-1-1-1-1-1-1-1-1-1-|
|
| W
|-1-------------------------------|
|-1-------------------------------|
|-2-------------------------------|
|-3-------------------------------|
|-3-------------------------------|
|-1-------------------------------|


  S S S S S S S S T T T T T T T T T T T T T T T T
|-------------------------------------------------|
|-------------------------------------------------|
|-------------------------------------------------|
|-0-0-0-0-0-0-0-0-1-1-1-1-1-1-1-1-3-3-3-3-3-3-3-3-|
|
| H               Q               Q
|-0---------------1---------------3---------------|
|-0---------------1---------------3---------------|
|-0---------------2---------------4---------------|
|-2---------------3---------------5---------------|
|-2---------------3---------------5---------------|
|-0---------------1---------------3---------------|


  E H..          S T T T T T T T T T T T T T T  S T T T T S  T T T T T T T T
|-------------|---------------------------------------------------------------|
|-------------|---------------------------------------------------------------|
|-0-----------|--3-3-3-3-3-3-3-3-3-3-3-3-3-3-3--3-3-3-3-3-3--3-3-3-3-3-3-3-3--|
|-------------|---------------------------------------------------------------|
|
| E H..          W
|-0-----------|-27-----------------------------24-----------20----------------|
|-1-----------|-20-----------------------------17-----------------------------|
|-2-----------|--5------------------------------------------17----------------|
|-2-----------|--5------------------------------------------------------------|
|-0-----------|--3------------------------------------------------------------|
|-------------|---------------------------------------------------------------|
                 H                              Q            Q


   S T T T T T T T T T T T T T T  T T T T T T T T  T T T T T T T T
|-------------------------------------------------------------------|
|-------------------------------------------------------------------|
|-------------------------------------------------------------------|
|--1-1-1-1-1-1-1-1-1-1-1-1-1-1-1--1-1-1-1-1-1-1-1--1-1-1-1-1-1-1-1--|
|
|  W
|-17-----------------------------19---------------20----------------|
|--1-----------------------------12---------------13----------------|
|-14----------------------------------------------------------------|
|--3----------------------------------------------------------------|
|--3----------------------------------------------------------------|
|--1----------------------------------------------------------------|
   H                              Q                Q


   T  T  T  T  S  S  T  T  T  T T T T T  T T T T T T T T T T T T T T T T
|-17-17-17-17-14----12-12-12-12-9-9-9-9--7-7-7-7-5-5-5-5-----------------|
|----------------14--------------------------------------5-5-5-5---------|
|------------------------------------------------------------------------|
|----------------------------------------------------------------3-3-3-3-|
|
|  W
|-24------------------------------------22-------------------------------|
|-17------------------------------------15-------------------------------|
|--4---------------------------------------------------------------------|
|--5---------------------------------------------------------------------|
|--5---------------------------------------------------------------------|
|--3---------------------------------------------------------------------|
   H                                     H


   S S S S S S S S  S S S S  S S S S    S S S S S S S S  S S S S S S S S
|------------------------------------|-----------------------------------|
|------------------------------------|-----------------------------------|
|--0-0-0-0-0-0-0-0--0-0-0-0--0-0-0-0-|--3-3-3-3-3-3-3-3--3-3-3-3-3-3-3-3-|
|------------------------------------|-----------------------------------|
|
|  W                                    W
|-20---------------24-------20-------|-15---------------20---------------|
|-13---------------17-------13-------|--8---------------13---------------|
|--2---------------------------------|--5--------------------------------|
|--2---------------------------------|--5--------------------------------|
|--0---------------------------------|--3--------------------------------|
|------------------------------------|-----------------------------------|
   H                Q        Q          H                H


   S S S S S S S S  S S S S  S S S S    S T T T T T T T T T T T T T T E Q.
|------------------------------------|----------------------------------------|
|------------------------------------|----------------------------------------|
|------------------------------------|----------------------------------------|
|--1-1-1-1-1-1-1-1--1-1-1-1--1-1-1-1-|--3-3-3-3-3-3-3-3-3-3-3-3-3-3-3-3-------|
|
|  W                                    H                             E Q.
|-17---------------19-------20-------|-20-----------------------------3-------|
|--1---------------12-------13-------|-13-----------------------------3-------|
|-14---------------------------------|--4-----------------------------4-------|
|--3---------------------------------|--5-----------------------------5-------|
|--3---------------------------------|--5-----------------------------5-------|
|--1---------------------------------|--3-----------------------------3-------|
   H                Q        Q          H                             H


  |-3-| |-3-| |-3-| |-3-|
  S S S S S S S S S S S S T T T T T T T T T T T T T T T T
|-------------------------4-2-1-4-2-1---------------------||
|---------2-3---2-3-5-2-3-------------3-2-3-2-------------||
|---2-3-5-----5-------------------------------5-3-2-------||
|-5-------------------------------------------------5-3-1-||


 Guitar
  S T T T T T T T T T T T T T T S T T T T S T T T T T T T T
|-----------------------------------------------------------|
|-----------------------------------------------------------|
|-7-7-7-7-7-7-7-7-7-7-7-7-7-7-7-3-3-3-3-3-3-3-3-3-3-3-3-3-3-|
|-----------------------------------------------------------|
|
| Gtr II
| H                             H
|-7-----------------------------3---------------------------|
|-8-----------------------------5---------------------------|
|-9-----------------------------5---------------------------|
|-9-----------------------------5---------------------------|
|-7-----------------------------3---------------------------|
|-----------------------------------------------------------|


  S T T T T T T T T T T T T T T S T T T T S T T T T T T T T
|-----------------------------------------------------------|
|-----------------------------------------------------------|
|-7-7-7-7-7-7-7-7-7-7-7-7-7-7-7-5-5-5-5-5-5-5-5-5-5-5-5-5-5-|
|-----------------------------------------------------------|
|
| H                             H
|-7-----------------------------5---------------------------|
|-8-----------------------------7---------------------------|
|-9-----------------------------7---------------------------|
|-9-----------------------------7---------------------------|
|-7-----------------------------5---------------------------|
|-----------------------------------------------------------|


  S T T T T T T T T T T T T T T S T T T T S T T T T T T T T
|-----------------------------------------------------------|
|-----------------------------------------------------------|
|-7-7-7-7-7-7-7-7-7-7-7-7-7-7-7-3-3-3-3-3-3-3-3-3-3-3-3-3-3-|
|-----------------------------------------------------------|
|
| H                             H
|-7-----------------------------3---------------------------|
|-8-----------------------------5---------------------------|
|-9-----------------------------5---------------------------|
|-9-----------------------------5---------------------------|
|-7-----------------------------3---------------------------|
|-----------------------------------------------------------|


  S T T T T T T T T T T T T T T T T T T T T T T T T T T T T T T
|---------------------------------------------------------------|
|---------------------------------------------------------------|
|-2-2-2-2-2-2-2-2-2-2-2-2-2-2-2-3-3-3-3-3-3-3-3-5-5-5-5-5-5-5-5-|
|---------------------------------------------------------------|
|
| H                             Q               Q
|-2-----------------------------3---------------5---------------|
|-3-----------------------------5---------------7---------------|
|-4-----------------------------5---------------7---------------|
|-4-----------------------------5---------------7---------------|
|-2-----------------------------3---------------7---------------|
|-----------------------------------------------5---------------|


  S T T T T T T T T T T T T T T S T T T T S T T T T T T T T
|-----------------------------------------------------------|
|-----------------------------------------------------------|
|-7-7-7-7-7-7-7-7-7-7-7-7-7-7-7-3-3-3-3-3-3-3-3-3-3-3-3-3-3-|
|-----------------------------------------------------------|
|
| H                             H
|-7-----------------------------3---------------------------|
|-8-----------------------------5---------------------------|
|-9-----------------------------5---------------------------|
|-9-----------------------------5---------------------------|
|-7-----------------------------3---------------------------|
|-----------------------------------------------------------|


  S T T T T T T T T T T T T T T S T T T T S T T T T T T T T
|-----------------------------------------------------------|
|-----------------------------------------------------------|
|-7-7-7-7-7-7-7-7-7-7-7-7-7-7-7-9-9-9-9-9-9-9-9-9-9-9-9-9-9-|
|-----------------------------------------------------------|
|
| H                             H
|-7-----------------------------5---------------------------|
|-8-----------------------------7---------------------------|
|-9-----------------------------7---------------------------|
|-9-----------------------------7---------------------------|
|-7-----------------------------5---------------------------|
|-----------------------------------------------------------|


  S T T T T T T T T T T T T T T S T T T T S T T T T T T T T
|-----------------------------------------------------------|
|-----------------------------------------------------------|
|-7-7-7-7-7-7-7-7-7-7-7-7-7-7-7-3-3-3-3-3-3-3-3-3-3-3-3-3-3-|
|-----------------------------------------------------------|
|
| H                             H
|-7-----------------------------3---------------------------|
|-8-----------------------------5---------------------------|
|-9-----------------------------5---------------------------|
|-9-----------------------------5---------------------------|
|-7-----------------------------3---------------------------|
|-----------------------------------------------------------|


  T T T T T T T T T T T T T T T T T T T T T T T T T T T T T T T T
|------------------------------------------------------------------|
|------------------------------------------------------------------|
|-0-0-0-0-0-0-0-0-0-0-0-0-0-0-0-0-2-2-2-2-2-2-2-2-2-2-2-2-2-2-2-2--|
|------------------------------------------------------------------|
|
| H                               H
|-0-------------------------------2--------------------------------|
|-1-------------------------------3--------------------------------|
|-2-------------------------------4--------------------------------|
|-2-------------------------------4--------------------------------|
|-0-------------------------------2--------------------------------|
|------------------------------------------------------------------|


 2/4      4/4
  E Q.     T T T T T T T T T T T T T T T T  T  T T T  T  T  T  T  Q
|--------|---------------------5-8-----5-8-11-14-5-8-11-14-17-20-----||
|--------|---------4-7-----4-7-----4-7---------------------------16--||
|-7------|-----3-6-----3-6-------------------------------------------||
|--------|-2-5-------------------------------------------------------||
|
| E Q.     W
|-0------|-----------------------------------------------------------||
|--------|-----------------------------------------------------------||
|--------|-----------------------------------------------------------||
|-2------|-----------------------------------------------------------||
|-2------|-----------------------------------------------------------||
|-0------|-----------------------------------------------------------||


 Verse
  S  S S T T S S E T  T S S T T S S E
|-------------------------------------|
|-------------------------------------|
|-0--0---0-0-0-0---0--0-0---0-0-0-0-7-|
|----------------3--------------------|
|
| Q.             E Q.               E
|-------------------------------------|
|-------------------------------------|
|-2----------------2------------------|
|-2--------------5-2----------------9-|
|-0--------------5-0----------------7-|
|----------------3------------------0-|


  T  T S S T T S S E T T S S T T S S S S
|------------------------------------------|
|------------------------------------------|
|-0--0-0---0-0-0-0-------------------------|
|------------------3-1-1-1---1-1-1---1-----|
|
| Q.               E H
|------------------------------------------|
|------------------------------------------|
|-2----------------------------------------|
|-2----------------5-3---------------------|
|-0----------------5-3---------------------|
|------------------3-1---------------------|


  S  S S T T S S E T  T S S T T S S  E
|--------------------------------------|
|--------------------------------------|
|-0--0---0-0-0-0---0--0-0---0-0-0-0--7-|
|----------------3---------------------|
|
| Q.             E Q.                E
|-----------------------------------17-|
|-----------------------------------10-|
|-2----------------2-------------------|
|-2--------------5-2-----------------9-|
|-0--------------5-0-----------------7-|
|----------------3-------------------0-|
  H                Q            E    E


   S  S S  S  S S  S S  T T T T T T T T  T T T T T T T T
|----------------------------------------------------------|
|----------------------------------------------------------|
|----------------------------------------------------------|
|--1--1-1--1--1-1--1-1--3-3-3-3-3-3-3-3--3-3-3-3-3-3-3-3---|
|
|  H                    H
|-20------22------20---19---------------15-----------------|
|-13------15------13---12----------------8-----------------|
|--2--------------------4----------------------------------|
|--3--------------------5----------------------------------|
|--3--------------------5----------------------------------|
|--1--------------------3----------------------------------|
   E.      E.      E    Q                Q


   T  T T T T T T T T T T T E T  T T T T T T T T T T T E
|--------------------------------------------------------|
|--------------------------------------------------------|
|--0--0-0-0-0-0-0-0-0-0-0-0---0--0-0-0-0-0-0-0-0-0-0-0-7-|
|---------------------------3----------------------------|
|
|  Q.                       E Q.                       E
|-17-----------------------------------------------------|
|-10-----------------------------------------------------|
|--2--------------------------2--------------------------|
|--2------------------------5-2------------------------9-|
|--0------------------------5-0------------------------7-|
|---------------------------3--------------------------0-|
   H                          H


  T  T T T T T T T T T T T E T T T T T T T T T T T T E
|------------------------------------------------------|
|------------------------------------------------------|
|-0--0-0-0-0-0-0-0-0-0-0-0-----------------------------|
|--------------------------3-1-1-1-1-1-1-1-1-1-1-1-1-1-|
|
| Q.                       E H
|------------------------------------------------------|
|------------------------------------------------------|
|-2----------------------------------------------------|
|-2------------------------5-3-------------------------|
|-0------------------------5-3-------------------------|
|--------------------------3-1-------------------------|


  T  T T T T T T T T T T T E T  T T T T T T T T T T T  E
|--------------------------------------------------------|
|--------------------------------------------------------|
|-0--0-0-0-0-0-0-0-0-0-0-0---0--0-0-0-0-0-0-0-0-0-0-0--7-|
|--------------------------3-----------------------------|
|
| Q.                       E Q.                        E
|-----------------------------------------------------17-|
|-----------------------------------------------------10-|
|-2--------------------------2---------------------------|
|-2------------------------5-2-------------------------9-|
|-0------------------------5-0-------------------------7-|
|--------------------------3---------------------------0-|
  H                          Q                E        E


   T  T T T T T  T  T T T T T  T T T T  T T T T T T T T  T T T T T T T T
|------------------------------------------------------------------------|
|------------------------------------------------------------------------|
|------------------------------------------------------------------------|
|--1--1-1-1-1-1--1--1-1-1-1-1--1-1-1-1--3-3-3-3-3-3-3-3--3-3-3-3-3-3-3-3-|
|
|  H                                    H
|-20------------22------------20-------19---------------15---------------|
|-13------------15------------13-------12----------------8---------------|
|--2------------------------------------4--------------------------------|
|--3------------------------------------5--------------------------------|
|--3------------------------------------5--------------------------------|
|--1------------------------------------3--------------------------------|
   E.            E.            E        Q                Q


   S S S S S S S S S S S S S S S S   S S S S S S S S S S S S S S S S
|----------------------------------|---------------------------------|
|----------------------------------|---------------------------------|
|----------------------------------|-0-0-0-0-0-0-0-0-0-0-0-0-0-0-0-0-|
|--1-1-1-1-1-1-1-1-1-1-1-1-1-1-1-1-|---------------------------------|
|
|  W                                 W
|-13-------------------------------|-0-------------------------------|
|-10-------------------------------|-1-------------------------------|
|--2-------------------------------|-2-------------------------------|
|--3-------------------------------|-2-------------------------------|
|--3-------------------------------|-0-------------------------------|
|--1-------------------------------|---------------------------------|
   H               H


  S S S S S S S S S S S S S S S S
|---------------------------------|
|---------------------------------|
|---------------------------------|
|-1-1-1-1-1-1-1-1-1-1-1-1-1-1-1-1-|
|
| W
|-1-------------------------------|
|-1-------------------------------|
|-2-------------------------------|
|-3-------------------------------|
|-3-------------------------------|
|-1-------------------------------|


  S S S S S S S S T T T T T T T T T T T T T T T T
|-------------------------------------------------|
|-------------------------------------------------|
|-------------------------------------------------|
|-0-0-0-0-0-0-0-0-1-1-1-1-1-1-1-1-3-3-3-3-3-3-3-3-|
|
| H               Q               Q
|-0---------------1---------------3---------------|
|-0---------------1---------------3---------------|
|-0---------------2---------------4---------------|
|-2---------------3---------------5---------------|
|-2---------------3---------------5---------------|
|-0---------------1---------------3---------------|


  E H..          S T T T T T T T T T T T T T T  S T T T T S  T T T T T T T T
|-------------|---------------------------------------------------------------|
|-------------|---------------------------------------------------------------|
|-0-----------|--3-3-3-3-3-3-3-3-3-3-3-3-3-3-3--3-3-3-3-3-3--3-3-3-3-3-3-3-3--|
|-------------|---------------------------------------------------------------|
|
| E H..          W
|-0-----------|-27-----------------------------24-----------20----------------|
|-1-----------|-20-----------------------------17-----------------------------|
|-2-----------|--5------------------------------------------17----------------|
|-2-----------|--5------------------------------------------------------------|
|-0-----------|--3------------------------------------------------------------|
|-------------|---------------------------------------------------------------|
                 H                              Q            Q


   S T T T T T T T T T T T T T T  T T T T T T T T  T T T T T T T T
|-------------------------------------------------------------------|
|-------------------------------------------------------------------|
|-------------------------------------------------------------------|
|--1-1-1-1-1-1-1-1-1-1-1-1-1-1-1--1-1-1-1-1-1-1-1--1-1-1-1-1-1-1-1--|
|
|  W
|-17-----------------------------19---------------20----------------|
|--1-----------------------------12---------------13----------------|
|-14----------------------------------------------------------------|
|--3----------------------------------------------------------------|
|--3----------------------------------------------------------------|
|--1----------------------------------------------------------------|
   H                              Q                Q


   T  T  T  T  S  S  T  T  T  T T T T T  T T T T T T T T T T T T T T T T
|-17-17-17-17-14----12-12-12-12-9-9-9-9--7-7-7-7-5-5-5-5-----------------|
|----------------14--------------------------------------5-5-5-5---------|
|------------------------------------------------------------------------|
|----------------------------------------------------------------3-3-3-3-|
|
|  W
|-24------------------------------------22-------------------------------|
|-17------------------------------------15-------------------------------|
|--4---------------------------------------------------------------------|
|--5---------------------------------------------------------------------|
|--5---------------------------------------------------------------------|
|--3---------------------------------------------------------------------|
   H                                     H


   S S S S S S S S  S S S S  S S S S    S S S S S S S S  S S S S S S S S
|------------------------------------|-----------------------------------|
|------------------------------------|-----------------------------------|
|--0-0-0-0-0-0-0-0--0-0-0-0--0-0-0-0-|--3-3-3-3-3-3-3-3--3-3-3-3-3-3-3-3-|
|------------------------------------|-----------------------------------|
|
|  W                                    W
|-20---------------24-------20-------|-15---------------20---------------|
|-13---------------17-------13-------|--8---------------13---------------|
|--2---------------------------------|--5--------------------------------|
|--2---------------------------------|--5--------------------------------|
|--0---------------------------------|--3--------------------------------|
|------------------------------------|-----------------------------------|
   H                Q        Q          H                H


   S S S S S S S S  S S S S  S S S S    S T T T T T T T T T T T T T T E Q.
|------------------------------------|----------------------------------------||
|------------------------------------|----------------------------------------||
|------------------------------------|----------------------------------------||
|--1-1-1-1-1-1-1-1--1-1-1-1--1-1-1-1-|--3-3-3-3-3-3-3-3-3-3-3-3-3-3-3-3-------||
|
|  W                                    H                             E Q.
|-17---------------19-------20-------|-20-----------------------------3-------||
|--1---------------12-------13-------|-13-----------------------------3-------||
|-14---------------------------------|--4-----------------------------4-------||
|--3---------------------------------|--5-----------------------------5-------||
|--3---------------------------------|--5-----------------------------5-------||
|--1---------------------------------|--3-----------------------------3-------||
   H                Q        Q          H                             H


 Break Solo
  Q=146
   S  S S S S S  S S  S  S S  S  S S  S  S
|----------------------------------9-10-12-|
|------------------9-10----9-10-12---------|
|---------5-7-8-12------12-----------------|
|--5--7-8----------------------------------|
|
|  W
|-(5)--------------------------------------|
|------------------------------------------|
|--2---------------------------------------|
|------------------------------------------|
|--0---------------------------------------|
|------------------------------------------|


   S   S  S  S  S  S  S  S  Q   S  S  S  S
|-14--12-14-16-17-16-14-12-14--17-16-17-19--|
|-------------------------------------------|
|-------------------------------------------|
|-------------------------------------------|
|
| +W
|-(5)---------------------------------------|
|-------------------------------------------|
|-(2)---------------------------------------|
|-------------------------------------------|
|-(0)---------------------------------------|
|-------------------------------------------|


   W            +W            W
|-17---------|-(17)--------|------------|
|------------|-------------|------------|
|------------|-------------|--0---------|
|------------|-------------|------------|
|
|  W            +W            W
|-(5)--------|--(5)--------|-(5)--------|
|------------|-------------|------------|
|--2---------|--(2)--------|--2---------|
|------------|-------------|------------|
|--0---------|--(0)--------|--0---------|
|------------|-------------|------------|


  +W            W            E   Q   Q   Q.
|------------|------------|-14--12-------------||
|------------|------------|---------15--14-----||
|-(0)--------|--0---------|--------------------||
|------------|------------|--------------------||
|
| +W            W           +W
|-(5)--------|-(5)--------|-(5)----------------||
|------------|------------|--------------------||
|-(2)--------|--2---------|-(2)----------------||
|------------|------------|--------------------||
|-(0)--------|--0---------|-(0)----------------||
|------------|------------|--------------------||


 Acoustic
   E   S  S  E  Q   E  E  E     E   S  S  E  Q   E  E  E
|----------------------------|----------------------------|
|----------------------------|------------------17----17--|
|-12--12-12------------------|-12--12-12------------------|
|-----------12-15--12-15-12--|-----------12-15-----15-----|
|
|  Q.           H        +E     Q.           H        +E
|--0------------0--------(0)-|--0------------0--------(0)-|
|--1------------0--------(0)-|--1------------0--------(0)-|
|--2------------2--------(2)-|--2------------2--------(2)-|
|--2------------2--------(2)-|--2------------2--------(2)-|
|--0------------0--------(0)-|--0------------0--------(0)-|
|----------------------------|----------------------------|


   E   S  S  E  Q   E  E  E     E.  E.  E  E  E  Q
|----------------------------|----------------------|
|----------------------------|------------14--------|
|-12--12-12------------------|-----12--14----15-12--|
|-----------12-15--12-15-12--|-13-------------------|
|
|  Q.           H        +E     W
|--0------------0--------(0)-|----------------------|
|--1------------0--------(0)-|--0-------------------|
|--2------------2--------(2)-|--2-------------------|
|--2------------2--------(2)-|--3-------------------|
|--0------------0--------(0)-|----------------------|
|----------------------------|--1-------------------|


   E   S  S  E  Q   E  E  E     E   S  S  E  Q   E  E  E
|----------------------------|----------------------------|
|----------------------------|------------------17----17--|
|-12--12-12------------------|-12--12-12------------------|
|-----------12-15--12-15-12--|-----------12-15-----15-----|
|
|  Q.           H        +E     Q.           H        +E
|--0------------0--------(0)-|--0------------0--------(0)-|
|--1------------0--------(0)-|--1------------0--------(0)-|
|--2------------2--------(2)-|--2------------2--------(2)-|
|--2------------2--------(2)-|--2------------2--------(2)-|
|--0------------0--------(0)-|--0------------0--------(0)-|
|----------------------------|----------------------------|


   E   S  S  E  Q   E  E  E     E.  E.  E  H
|----------------------------|------------------|
|----------------------------|------------------|
|-12--12-12------------------|-----12-----------|
|-----------12-15--12-15-12--|-13------13-17----|
|
|  Q.           H        +E     W
|--0------------0--------(0)-|------------------|
|--1------------0--------(0)-|------------------|
|--2------------2--------(2)-|--2---------------|
|--2------------2--------(2)-|--3---------------|
|--0------------0--------(0)-|--2---------------|
|----------------------------|------------------|


   E E  E  Q   E E  E    E   E  E  E  E E  E  E
|---------------------|-------------------------|
|----9-12-12-----9-12S|=14--12-14-10----9-------|
|-10----------10------|-------------------12-10-|
|---------------------|-------------------------|
|
|  W                    +W
|-15------------------|-15)----------20---------|
|-12------------------|-(3)---------------------|
|--4------------------|-(4)----------17---------|
|--5------------------|-(5)---------------------|
|--5------------------|-(5)---------------------|
|--3------------------|-(3)---------------------|
   W                     H            H


   Q.         Q.        Q     E  S S  S S E E S S  S S E
|--------------------------|-----------------------------|
|-10---------10--------10--|--0--0-0-12p0---0-0-0-12p0---|
|--------------------------|-----------------------------|
|--------------------------|-----------------------------|
|
|  W                          W
|-19--20-19--17--(17)------|-17--------------------------|
|--1--------(18)-(18)------|-18--------------------------|
|-16--17-16--14--(14)------|-14--------------------------|
|--3--------(15)-(15)------|-15--------------------------|
|--3-----------------------|-(3)-------------------------|
|--1-----------------------|-(1)-------------------------|
   E   E  E   E   +H          W


   E  E  E  Q       E E  E    E   E  E  Q     E  E  E
|--------------------------|--------------------------|
|-----9-12-12---------9-12-|-14--17-14-17----17-14----|
|-10---------------10------|-----------------------17-|
|--------------------------|--------------------------|
|
|  W                          W
|-19-20-19-15-(15)---------|-15-----------20----------|
|--3-----------------------|-(3)----------------------|
|-16-17-16-12-(12)---------|-12-----------17----------|
|--5-----------------------|-(5)----------------------|
|--5-----------------------|-(5)----------------------|
|--3-----------------------|-(3)----------------------|
   E  E  E  E  +H             H            H


   Q.         Q.        Q     Q.    Q.    Q
|--------------------------|-----------------||
|--------------------------|-----------------||
|-15---------15--------15--|-15----15----15--||
|--------------------------|-----------------||
|
|  W                          W
|-19--20-19--17--(17)------|-17--------------||
|--1--------(18)-(18)------|-18--------------||
|-16--17-16--14--(14)------|-14--------------||
|--3--------(15)-(15)------|-15--------------||
|--3-----------------------|-(3)-------------||
|--1-----------------------|-(1)-------------||
   E   E  E   E   +H          W


 Solo 1
  W          +W           W          +W
|----------|------------|----------|------------|
|----------|------------|----------|------------|
|-0--------|-(0)--------|-0--------|-(0)--------|
|----------|------------|----------|------------|
|
| W          +W           W          +W
|-0--------|-(0)--------|-0--------|-(0)--------|
|-1--------|-(1)--------|-1--------|-(1)--------|
|-2--------|-(2)--------|-2--------|-(2)--------|
|-2--------|-(2)--------|-2--------|-(2)--------|
|-0--------|-(0)--------|-0--------|-(0)--------|
|----------|------------|----------|------------|


  W          +W           W          +W
|----------|------------|----------|--------||
|----------|------------|----------|--------||
|-0--------|-(0)--------|-0--------|-(0)----||
|----------|------------|----------|--------||
|
| W          +W           W          +W
|-0--------|-(0)--------|-0--------|-(0)----||
|-1--------|-(1)--------|-1--------|-(1)----||
|-2--------|-(2)--------|-2--------|-(2)----||
|-2--------|-(2)--------|-2--------|-(2)----||
|-0--------|-(0)--------|-0--------|-(0)----||
|----------|------------|----------|--------||


 Solo 2
  Q  E E E E E E   Q  E E E E E E   Q  E E E E E E   H    H
|----------------|----------------|----------------|-----------|
|----------------|----------------|----------------|-----------|
|-0--0-0-0-0-0-0-|-0--0-0-0-0-0-0-|-0--0-0-0-0-0-0-|-----------|
|----------------|----------------|----------------|-1----1----|
|
| W                W                W                W
|-0--------------|-0--------------|-0--------------|-1---------|
|-1--------------|-1--------------|-1--------------|-1---------|
|-2--------------|-2--------------|-2--------------|-2---------|
|-2--------------|-2--------------|-2--------------|-3---------|
|-0--------------|-0--------------|-0--------------|-3---------|
|----------------|----------------|----------------|-1---------|


  Q  E E E E E E   Q  E E E E E E   Q  E E E E E E   H    H
|----------------|----------------|----------------|-----------||
|----------------|----------------|----------------|-----------||
|-0--0-0-0-0-0-0-|-0--0-0-0-0-0-0-|-0--0-0-0-0-0-0-|-----------||
|----------------|----------------|----------------|-1----1----||
|
| W                W                W                W
|-0--------------|-0--------------|-0--------------|-1---------||
|-1--------------|-1--------------|-1--------------|-1---------||
|-2--------------|-2--------------|-2--------------|-2---------||
|-2--------------|-2--------------|-2--------------|-3---------||
|-0--------------|-0--------------|-0--------------|-3---------||
|----------------|----------------|----------------|-1---------||


 Solo 3
   E E  E  Q   E E  E    E   E  E  E E E  E  E
|---------------------|------------------------|
|----9-12-12-----9-12S|=14--12-14-10---9-------|
|-10----------10------|------------------12-10-|
|---------------------|------------------------|
|
|  W                    +W
|--3------------------|-(3)--------------------|
|--3------------------|-(3)--------------------|
|--4------------------|-(4)--------------------|
|--5------------------|-(5)--------------------|
|--5------------------|-(5)--------------------|
|--3------------------|-(3)--------------------|


   Q.    Q.    Q     Q.    Q.    Q
|-----------------|-----------------|
|-10----10----10--|-10----10----10--|
|-----------------|-----------------|
|-----------------|-----------------|
|
|  W                +W
|--1--------------|-(1)-------------|
|--1--------------|-(1)-------------|
|--2--------------|-(2)-------------|
|--3--------------|-(3)-------------|
|--3--------------|-(3)-------------|
|--1--------------|-(1)-------------|


   E E  E  Q   E E  E    E   E  E  Q   E  E  E
|---------------------|------------------------|
|----9-12-12-----9-12-|-14--17-14-17--17-14----|
|-10----------10------|---------------------17-|
|---------------------|------------------------|
|
|  W                    +W
|--3------------------|-(3)--------------------|
|--3------------------|-(3)--------------------|
|--4------------------|-(4)--------------------|
|--5------------------|-(5)--------------------|
|--5------------------|-(5)--------------------|
|--3------------------|-(3)--------------------|


   Q.    Q.    Q     Q.    Q.    E  E
|-----------------|-------------------||
|-----------------|-------------------||
|-15----15----15--|-15----15----15-15-||
|-----------------|-------------------||
|
|  W                +W
|--1--------------|-(1)---------------||
|--1--------------|-(1)---------------||
|--2--------------|-(2)---------------||
|--3--------------|-(3)---------------||
|--3--------------|-(3)---------------||
|--1--------------|-(1)---------------||


 Solo 4
  Q  Q  Q  Q     Q   Q  Q  Q    Q  Q  Q  Q     Q   Q  Q  Q
|-------------|---------------|-------------|---------------|
|-------------|---------------|-------------|---------------|
|-------------|---------------|-3--3--3--3--|--3---3--3--3--|
|-1--1--1--1--|--1---1--1--1--|-------------|---------------|
|
| W             +W              W             +W
|-1-----------|-(1)-----------|-3-----------|-(3)-----------|
|-1-----------|-(1)-----------|-5-----------|-(5)-----------|
|-2-----------|-(2)-----------|-5-----------|-(5)-----------|
|-3-----------|-(3)-----------|-5-----------|-(5)-----------|
|-3-----------|-(3)-----------|-3-----------|-(3)-----------|
|-1-----------|-(1)-----------|-------------|---------------|


  W          +W           W          W
|----------|------------|----------|----------|
|----------|------------|----------|----------|
|----------|------------|-0--------|----------|
|-1--------|-(1)--------|----------|-3--------|
|
| W          +W           W          W
|-1--------|-(1)--------|-0--------|-3--------|
|-1--------|-(1)--------|-1--------|-3--------|
|-2--------|-(2)--------|-2--------|-4--------|
|-3--------|-(3)--------|-2--------|-5--------|
|-3--------|-(3)--------|-0--------|-5--------|
|-1--------|-(1)--------|----------|-3--------|


  Q=131
  W          +W           W          +W
|----------|------------|----------|--------|
|----------|------------|----------|--------|
|-3--------|-(3)--------|----------|--------|
|----------|------------|-1--------|-(1)----|
|
| W          +W           W          +W
|-3--------|-(3)--------|-1--------|-(1)----|
|-5--------|-(5)--------|-1--------|-(1)----|
|-5--------|-(5)--------|-2--------|-(2)----|
|-5--------|-(5)--------|-3--------|-(3)----|
|-3--------|-(3)--------|-3--------|-(3)----|
|----------|------------|-1--------|-(1)----|


  W          +W           W          S S S S S S S S H
|----------|------------|----------|----------------------||
|----------|------------|----------|----------------------||
|-3--------|-(3)--------|-5--------|----------------------||
|----------|------------|----------|-3-3-3-3-3-3-3-3-3----||
|
| W          +W           W          W
|-3--------|-(3)--------|-5--------|-3--------------------||
|-5--------|-(5)--------|-6--------|-3--------------------||
|-5--------|-(5)--------|-7--------|-4--------------------||
|-5--------|-(5)--------|-7--------|-5--------------------||
|-3--------|-(3)--------|-5--------|-5--------------------||
|----------|------------|----------|-3--------------------||


 Twin Solo
  S S S S S S S S S S S S S S S S   S S S S S S S S S S S S S S S S
|---------------------------------|---------------------------------|
|---------------------------------|---------------------------------|
|---------------------------------|-0-0-0-0-0-0-0-0-0-0-0-0-0-0-0-0-|
|-1-1-1-1-1-1-1-1-1-1-1-1-1-1-1-1-|---------------------------------|
|
| W                                 W
|-1-------------------------------|-0-------------------------------|
|-1-------------------------------|-1-------------------------------|
|-2-------------------------------|-2-------------------------------|
|-3-------------------------------|-2-------------------------------|
|-3-------------------------------|-0-------------------------------|
|-1-------------------------------|---------------------------------|


  S S S S S S S S S S S S S S S S   S S S S S S S S S S S S S S S S
|---------------------------------|---------------------------------||
|---------------------------------|---------------------------------||
|---------------------------------|-0-0-0-0-0-0-0-0-0-0-0-0-0-0-0-0-||
|-3-3-3-3-3-3-3-3-3-3-3-3-3-3-3-3-|---------------------------------||
|
| W                                 W
|-3-------------------------------|-0-------------------------------||
|-3-------------------------------|-1-------------------------------||
|-4-------------------------------|-2-------------------------------||
|-5-------------------------------|-2-------------------------------||
|-5-------------------------------|-0-------------------------------||
|-3-------------------------------|---------------------------------||


 Solo 6
  S T T T T T T T T T T T T T T S T T T T S T T T T T T T T
|-----------------------------------------------------------|
|-----------------------------------------------------------|
|-5-5-5-5-5-5-5-5-5-5-5-5-5-5-5-5-5-5-5-5-5-5-5-5-5-5-5-5-5-|
|-----------------------------------------------------------|
|
| W
|-5---------------------------------------------------------|
|-6---------------------------------------------------------|
|-7---------------------------------------------------------|
|-7---------------------------------------------------------|
|-5---------------------------------------------------------|
|-----------------------------------------------------------|


  S T T T T T T T T T T T T T T S T T T T S T T T T T T T T
|-----------------------------------------------------------|
|-----------------------------------------------------------|
|-3-3-3-3-3-3-3-3-3-3-3-3-3-3-3-3-3-3-3-3-3-3-3-3-3-3-3-3-3-|
|-----------------------------------------------------------|
|
| W
|-3---------------------------------------------------------|
|-5---------------------------------------------------------|
|-5---------------------------------------------------------|
|-5---------------------------------------------------------|
|-3---------------------------------------------------------|
|-----------------------------------------------------------|


  S T T T T T T T T T T T T T T S T T T T S T T T T T T T T
|-----------------------------------------------------------|
|-----------------------------------------------------------|
|-5-5-5-5-5-5-5-5-5-5-5-5-5-5-5-5-5-5-5-5-5-5-5-5-5-5-5-5-5-|
|-----------------------------------------------------------|
|
| W
|-5---------------------------------------------------------|
|-6---------------------------------------------------------|
|-7---------------------------------------------------------|
|-7---------------------------------------------------------|
|-5---------------------------------------------------------|
|-----------------------------------------------------------|


  S T T T T T T T T T T T T T T S T T T T S T T T T T T T T
|-----------------------------------------------------------||
|-----------------------------------------------------------||
|-----------------------------------------------------------||
|-3-3-3-3-3-3-3-3-3-3-3-3-3-3-3-3-3-3-3-3-3-3-3-3-3-3-3-3-3-||
|
| W
|-3---------------------------------------------------------||
|-3---------------------------------------------------------||
|-4---------------------------------------------------------||
|-5---------------------------------------------------------||
|-5---------------------------------------------------------||
|-3---------------------------------------------------------||


 Solo 7
  S S S S S S S S S S S S S S S S   S S S S S S S S S S S S S S S S
|---------------------------------|---------------------------------|
|---------------------------------|---------------------------------|
|---------------------------------|-0-0-0-0-0-0-0-0-0-0-0-0-0-0-0-0-|
|-1-1-1-1-1-1-1-1-1-1-1-1-1-1-1-1-|---------------------------------|
|
| W                                 W
|-1-------------------------------|-0-------------------------------|
|-1-------------------------------|-1-------------------------------|
|-2-------------------------------|-2-------------------------------|
|-3-------------------------------|-2-------------------------------|
|-3-------------------------------|-0-------------------------------|
|-1-------------------------------|---------------------------------|


  S S S S S S S S S S S S S S S S   S S S S S S S S S S S S S S S S
|---------------------------------|---------------------------------||
|---------------------------------|---------------------------------||
|---------------------------------|---------------------------------||
|-1-1-1-1-1-1-1-1-1-1-1-1-1-1-1-1-|-0-0-0-0-0-0-0-0-1-1-1-1-3-3-3-3-||
|
| W                                 H       Q   Q
|-1-------------------------------|-0-------1---3-------------------||
|-1-------------------------------|-0-------1---3-------------------||
|-2-------------------------------|-0-------2---4-------------------||
|-3-------------------------------|-2-------3---5-------------------||
|-3-------------------------------|-2-------3---5-------------------||
|-1-------------------------------|-0-------1---3-------------------||


 Solo 8
  S T T T T T T T T T T T T T T S T T T T S T T T T T T T T
|-----------------------------------------------------------|
|-----------------------------------------------------------|
|-----------------------------------------------------------|
|-1-1-1-1-1-1-1-1-1-1-1-1-1-1-1-1-1-1-1-1-1-1-1-1-1-1-1-1-1-|
|
| W
|-1---------------------------------------------------------|
|-1---------------------------------------------------------|
|-2---------------------------------------------------------|
|-3---------------------------------------------------------|
|-3---------------------------------------------------------|
|-1---------------------------------------------------------|


  S T T T T T T T T T T T T T T S T T T T S T T T T T T T T
|-----------------------------------------------------------|
|-----------------------------------------------------------|
|-3-3-3-3-3-3-3-3-3-3-3-3-3-3-3-3-3-3-3-3-3-3-3-3-3-3-3-3-3-|
|-----------------------------------------------------------|
|
| W
|-3---------------------------------------------------------|
|-5---------------------------------------------------------|
|-5---------------------------------------------------------|
|-5---------------------------------------------------------|
|-3---------------------------------------------------------|
|-----------------------------------------------------------|


  S T T T T T T T T T T T T T T S T T T T S T T T T T T T T
|-----------------------------------------------------------|
|-----------------------------------------------------------|
|-5-5-5-5-5-5-5-5-5-5-5-5-5-5-5-5-5-5-5-5-5-5-5-5-5-5-5-5-5-|
|-----------------------------------------------------------|
|
| W
|-5---------------------------------------------------------|
|-6---------------------------------------------------------|
|-7---------------------------------------------------------|
|-7---------------------------------------------------------|
|-5---------------------------------------------------------|
|-----------------------------------------------------------|


  S T T T T T T T T T T T T T T S T T T T S T T T T T T T T
|-----------------------------------------------------------|
|-----------------------------------------------------------|
|-----------------------------------------------------------|
|-3-3-3-3-3-3-3-3-3-3-3-3-3-3-3-3-3-3-3-3-3-3-3-3-3-3-3-3-3-|
|
| W
|-3---------------------------------------------------------|
|-3---------------------------------------------------------|
|-4---------------------------------------------------------|
|-5---------------------------------------------------------|
|-5---------------------------------------------------------|
|-3---------------------------------------------------------|


  S  S S S S S S S S S S S S S S S   S S S S S S S S  S S S S S S S S
|----------------------------------|----------------------------------|
|----------------------------------|----------------------------------|
|-0--0-0-0-0-0-0-0-0-0-0-0-0-0-0-0-|-3-3-3-3-3-3-3-3--3-3-3-3-3-3-3-3-|
|----------------------------------|----------------------------------|
|
| W                                  W
|-0-17-----------------------------|-3---------------24---------------|
|-1--------------------------------|-5--------------------------------|
|-2-14-----------------------------|-5---------------21---------------|
|-2--------------------------------|-5--------------------------------|
|-0--------------------------------|-3--------------------------------|
|----------------------------------|----------------------------------|
     W                                                W


   S S S S S S S S S S S S S S S S   S S S S S S S S  S S S S S S S S
|----------------------------------|----------------------------------|
|----------------------------------|----------------------------------|
|----------------------------------|----------------------------------|
|--1-1-1-1-1-1-1-1-1-1-1-1-1-1-1-1-|-3-3-3-3-3-3-3-3--3-3-3-3-3-3-3-3-|
|
|  W                                 W
|-17-------------------------------|-3---------------19---------------|
|--1-------------------------------|-3--------------------------------|
|-14-------------------------------|-4---------------16---------------|
|--3-------------------------------|-5--------------------------------|
|--3-------------------------------|-5--------------------------------|
|--1-------------------------------|-3--------------------------------|
   W                                                  W


  S S S S S S S S  S S S S S S S S   S S S S S S S S  S S S S S S S S
|----------------------------------|----------------------------------|
|----------------------------------|----------------------------------|
|-0-0-0-0-0-0-0-0--0-0-0-0-0-0-0-0-|-3-3-3-3-3-3-3-3--3-3-3-3-3-3-3-3-|
|----------------------------------|----------------------------------|
|
| W                                  W
|-0---------------24---------------|-3---------------15---------------|
|-1--------------------------------|-5--------------------------------|
|-2---------------21---------------|-5---------------12---------------|
|-2--------------------------------|-5--------------------------------|
|-0--------------------------------|-3--------------------------------|
|----------------------------------|----------------------------------|
                   W                                  W


   S S S S S S S S S S S S S S S S   S S S S S S S S  S S  S S  S S  S S
|----------------------------------|-------------------------------------||
|----------------------------------|-------------------------------------||
|----------------------------------|-------------------------------------||
|--1-1-1-1-1-1-1-1-1-1-1-1-1-1-1-1-|-3-3-3-3-3-3-3-3--3-3--3-3--3-3--3-3-||
|
|  W                                 W
|-17-------------------------------|-3---------------15---17---19---20---||
|--1-------------------------------|-3-----------------------------------||
|-14-------------------------------|-4---------------12---14---16---17---||
|--3-------------------------------|-5-----------------------------------||
|--3-------------------------------|-5-----------------------------------||
|--1-------------------------------|-3-----------------------------------||
   W                                                  Q    Q    Q    Q


 Outro
  E  H..               Wx2           H    T T T T T T T T T T T T T T T T
|--------------------|------------||--------------------------------------|
|--------------------|------------||--------------------------------------|
|-0------------------|------------||--------------------------------------|
|--------------------|------------||------3-3-3-3-3-3-3-3-3-3-3-3-3-3-3-3-|
|
| E      H..           Wx2           W
|-0-24---------------|------------||--------------------------------------|
|-1------------------|------------||--------------------------------------|
|-2-21---------------|------------||--------------------------------------|
|-2------------------|------------||--------------------------------------|
|-0------------------|------------||--------------------------------------|
|--------------------|------------||--------------------------------------|
     E       H..


   S S S S S S S S  S S S S  S S S S    S S S S S S S S  S S S S  S S S S
|------------------------------------|------------------------------------|
|------------------------------------|------------------------------------|
|--2-2-2-2-2-2-2-2--2-2-2-2--2-2-2-2-|--5-5-5-5-5-5-5-5--5-5-5-5--5-5-5-5-|
|------------------------------------|------------------------------------|
|
|  W                                    W
|-26---------------22-------26-------|-29---------------26-------22-------|
|-19---------------15-------19-------|-22---------------19-------15-------|
|--4---------------------------------|--7---------------------------------|
|--4---------------------------------|--7---------------------------------|
|--2---------------------------------|--5---------------------------------|
|------------------------------------|------------------------------------|
   H                Q        Q          H                Q        Q


  S T T T T T T T  T T T T  T T  T S T T T T S T T T T T T T T
|---------------------------------------------------------------|
|---------------------------------------------------------------|
|---------------------------------------------------------------|
|-3-3-3-3-3-3-3-3--3-3-3-3--3-3--3-3-3-3-3-3-3-3-3-3-3-3-3-3-3--|
|
| W
|-3---------------19-------21---22------------------------------|
|-3---------------12-------14---15------------------------------|
|-4-------------------------------------------------------------|
|-5-------------------------------------------------------------|
|-5-------------------------------------------------------------|
|-3-------------------------------------------------------------|
                   H        Q    Q


  S S S S S S S S  S S S S  S S S S   S S S S S S S S  S S S S  S S  S S
|-----------------------------------|------------------------------------|
|-----------------------------------|------------------------------------|
|-0-0-0-0-0-0-0-0--0-0-0-0--0-0-0-0-|-2-2-2-2-2-2-2-2--2-2-2-2--2-2--2-2-|
|-----------------------------------|------------------------------------|
|
| W                                   W
|-0---------------26-------24-------|-2---------------22-------26---22---|
|-2---------------19-------17-------|-3---------------15-------19---15---|
|-2---------------------------------|-4----------------------------------|
|-2---------------------------------|-4----------------------------------|
|-0---------------------------------|-2----------------------------------|
|-----------------------------------|------------------------------------|
                   H        H                          H        Q    Q


  S S S S S S S S  S S S S  S S S S
|-----------------------------------|
|-----------------------------------|
|-5-5-5-5-5-5-5-5--5-5-5-5--5-5-5-5-|
|-----------------------------------|
|
| W
|-5---------------17-------22-------|
|-7---------------10-------15-------|
|-7---------------------------------|
|-7---------------------------------|
|-5---------------------------------|
|-----------------------------------|
                   H        H


  S T T T T T T T  T T T T T T   T   S   T T T T S T T T T T T T T
|------------------------------------------------------------------|
|------------------------------------------------------------------|
|------------------------------------------------------------------|
|-3-3-3-3-3-3-3-3--3-3-3-3-3-3---3---3---3-3-3-3-3-3-3-3-3-3-3-3-3-|
|
| W
|-3---------------19-----------(19)-21--22-------------------------|
|-3---------------12-----------(12)-14--15-------------------------|
|-4----------------------------------------------------------------|
|-5----------------------------------------------------------------|
|-5----------------------------------------------------------------|
|-3----------------------------------------------------------------|
                   H            +E.  E.  E


   S S S S S S S S   S  S S  S  S S  S S
|----------------------------------------|
|----------------------------------------|
|----------------------------------------|
|--3-3-3-3-3-3-3-3---3--3-3--3--3-3--3-3-|
|
|  W
|-19---------------(19)-----21------22---|
|-12---------------(12)-----14------15---|
|--4-------------------------------------|
|--5-------------------------------------|
|--5-------------------------------------|
|--3-------------------------------------|
   H                +E.      E.      E


   S T T T T T T T T T T T T T T   S  T T T T  S  T T T T  T T T T
|------------------------------------------------------------------|
|------------------------------------------------------------------|
|------------------------------------------------------------------|
|--3-3-3-3-3-3-3-3-3-3-3-3-3-3-3---3--3-3-3-3--3--3-3-3-3--3-3-3-3-|
|
|  W
|-19-----------------------------(19)---------21----------22-------|
|-12-----------------------------(12)---------14----------15-------|
|--4---------------------------------------------------------------|
|--5---------------------------------------------------------------|
|--5---------------------------------------------------------------|
|--3---------------------------------------------------------------|
   H                              +E.          E.          E


  S T T T T S T T  T   T   S  T T  E Q.
|-----------------------------------------|
|-----------------------------------------|
|-0-0-0-0-0-0-0-0--0---0---0--0-0--0------|
|-----------------------------------------|
|
| H       H
|-0---------------22--21--19-21-----------|
|-2---------------15--14--12-14-----------|
|-2---------------------------------------|
|-0---------------------------------------|
|-----------------------------------------|
|-----------------------------------------|
                   E.  E.  E  E Q.


  |-3-| |-3-| |-3-| |-3-|
  S S S S S S S S S S S S T T T T T T T T T T T T T T T T   E H..
|---------------------------------------------------------|----------*|
|---------4-5---4-5-7-4-5-9-7-6-9-7-6---------------------|----------*|
|---4-5-7-----7-----------------------8-7-5-7-5---5-------|----------*|
|-7---------------------------------------------8---8-7-5-|-7--------*|
|
| W                                                         W
|---------------------------------------------------------|----------*|
|---------------------------------------------------------|----------*|
|---------------------------------------------------------|----------*|
|---------------------------------------------------------|----------*|
|---------------------------------------------------------|----------*|
|---------------------------------------------------------|----------*|



Duration Legend
---------------
W - whole; H - half; Q - quarter; E - 8th; S - 16th; T - 32nd; X - 64th; a - acciaccatura
+ - note tied to previous; . - note dotted; .. - note double dotted
Uncapitalized letters represent notes that are staccato (1/2 duration)
Irregular groupings are notated above the duration line
Duration letters will always appear directly above the note/fret number it represents the
duration for.  Duration letters with no fret number below them represent rests.  Multi-
bar rests are notated in the form Wxn, where n is the number of bars to rest for.  Low
melody durations appear below the staff

Tablature Legend
----------------
 h   - hammer-on
 p   - pull-off
 b   - bend
 pb  - pre-bend
 r   - bend release (if no number after the r, then release immediately)
 /\  - slide into or out of (from/to "nowhere")
 s   - legato slide
 S   - shift slide
 - natural harmonic
[n]  - artificial harmonic
n(n) - tapped harmonic
 ~   - vibrato
 tr  - trill
 T   - tap
 TP  - trem. picking
 PM  - palm muting
\n/  - tremolo bar dip; n = amount to dip
 \n  - tremolo bar down
 n/  - tremolo bar up
/n\  - tremolo bar inverted dip
 =   - hold bend; also acts as connecting device for hammers/pulls
 <> - volume swell (louder/softer)
 x   - on rhythm slash represents muted slash
 o   - on rhythm slash represents single note slash

Misc Legend
-----------
 |  - bar
||  - double bar
||o - repeat start
o|| - repeat end
*|  - double bar (ending)
 :  - bar (freetime)
 $  - Segno
 &  - Coda
Tempo markers -  = BPM(8/16=s8/s16), where s8 = swing 8ths, s16 = swing 16ths


            
            
Suggest correction
Creating personal tab
Creating personal tab
You can edit any tab online and save it as your Personal.

You can edit, replace or remove any tab part or add personal notes – all changes will be seen only by you.

Personal tabs can be accessed anytime from any device, even offline.
Learn more »
Give kudos to tab author, rate the tab!
1 2 3 4 5
comments
print report bad tab
guest
You may want to rate the tab now too:
select rating
Wanna post a correction for this tab? Suggest correction