Oops, an error
Loading. Please wait.

Starfire tab

version 1
version 1

Whole song

  • This is a tab of the DEMO from when the band was originally called Dragonheart.

Interactive

5,153 views 3 this week
1 commentread comment
1 2 3 4 5
1 last vote to show rating
add to favorites
×
Save as Personal and add changes to this tab that will be seen only by you. Learn more ›
×
You can save this tab as Personal to edit and correct it or add notes. All changes will be seen only by you. Learn more »
launch autoscroll
font size
0
reset
how to read this tab
guitar tuner
edit
Autoscroll
slow
fast
+/-
esc
set tempo
stop
#----------------------------------PLEASE NOTE---------------------------------#
#This file is the author's own work and represents their interpretation of the #
#song. You may only use this file for private study, scholarship, or research. #
#------------------------------------------------------------------------------#

STARFIRE
As recorded by DragonForce
(From the 2003 Album VALLEY OF THE DAMNED)

Transcribed by Knightrider of Doom
        



Gtr I (E A D G B E) - 'Lead Electric'
Gtr II (E A D G B E) - 'Lead Acoustic'
Gtr III (E A D G B E) - 'Rhythm Acoustic'
Gtr IV (E A D G B E) - 'Rhythm Electric'

 Intro          Verse 1
  Q=155
 4/4
  Gtr III
  Wx17           Wx16
|-------------||---------||
|-------------||---------||
|-------------||---------||
|-------------||---------||
|-------------||---------||
|-------------||---------||


 Bridge 1
  E E Q  Q  E E   E E E Q  Q  E   Q  E Q  E E E   E Q  Q  Q  E
|-0-2-2--2--2-2-|-3-2-2-0--2--2-|---------------|---------------|
|--------3------|-1-3-3-1--3----|-5--5-5--5-5-5-|-3-5--5--5-----|
|--------2------|-0--------2----|-5--5-5--------|-4-5--5--5-----|
|---------------|---------------|-5----5--------|-5-5--5-----7--|
|---------------|---------------|---------------|---------------|
|---------------|---------------|---------------|---------------|


  Q  Q  Q  E E   E E E Q  E E E   +W            W
|-2--2--2--2-2-|-3-2-2-2--0-2---|------------|--------||
|-3-----3------|-3-3---3------3-|-(3)--------|--------||
|-2-----2------|-------2--------|------------|--------||
|--------------|----------------|------------|--------||
|--------------|----------------|------------|--------||
|--------------|----------------|------------|--------||
|
| Gtr IV
| W              W                 W           +W
|--------------|----------------|------------|--------||
|--------------|----------------|------------|--------||
|--------------|----------------|--5---------|-(5)----||
|--------------|----------------|--5---------|-(5)----||
|--------------|----------------|--3---------|-(3)----||
|--------------|----------------|------------|--------||


 Interlude
  H    H       E  E Q   E  E Q     +H     Q  E E   +E  Q  Q  E E E
|-----------|-------3--------3---|-(3)-----------|-----0--0--0------|
|-0----0----|--0--3-0---0--3-0---|-(0)----1--3-3-|-(3)-1--1--1-3-3--|
|-0----0----|-------0--------0---|-(0)----0--0-0-|-(0)-0--0--0-0-0--|
|-0----0----|-------0--------0---|-(0)----2--0-0-|-(0)-2--2----0-0--|
|-2----2----|-------2--------2---|-(2)----3------|-------------2-2--|
|-3----3----|-------3--------3---|-(3)----3------|-------------3-3--|
|
| W           +H       +Q    E E    W              +W
|-----------|--------------------|---------------|------------------|
|-----------|--------------------|---------------|------------------|
|-----------|--------------------|--5------------|-(5)--------------|
|-5---------|-(5)------(5)---x-x-|--5------------|-(5)--------------|
|-5---------|-(5)------(5)---5-5-|--3------------|-(3)--------------|
|-3---------|-(3)------(3)---3-3-|---------------|------------------|


  H    H       E  E Q  E E Q     +H     Q  E E   +E  Q  Q  E   E   E
|-----------|-------3------3---|-(3)-----------|-----0--0--0----------||
|-0----0----|--0--3-0--0-3-0---|-(0)----1--3-3-|-(3)-1--1--1---3---3--||
|-0----0----|-------0------0---|-(0)----0--0-0-|-(0)-0--0--0---0---0--||
|-0----0----|-------0------0---|-(0)----2--0-0-|-(0)-2--2------0---0--||
|-2----2----|-------2------2---|-(2)----3------|---------------2---2--||
|-3----3----|-------3------3---|-(3)----3------|---------------3---3--||
|
| W           +H       E E E E    W               H.          +Q
|-----------|------------------|---------------|----------------------||
|-----------|------------------|---------------|----------------------||
|-----------|------------------|--5------------|-17----------(17)\----||
|-5---------|-(5)------x-x-x-x-|--5------------|-17----------(17)\----||
|-5---------|-(5)------5-5-5-5-|--3------------|-15----------(15)\----||
|-3---------|-(3)------3-3-3-3-|---------------|----------------------||


 Verse 2
  H    H      E Q  Q  E Q    H    Q.   E   Q.   Q  E E E
|------3----|------3--3----|-0----3----0-|-0----0--0------|
|-0----0----|-0-3--0----3--|-1----1------|-1----1--1-3-3--|
|------0----|------0-------|-0----0------|-0----0--0-0-0--|
|------0----|------0-------|-2----2------|-2----2--2-0-0--|
|------2----|------2-------|-3-----------|----------------|
|------3----|------3-------|-3-----------|----------------|


  H    H      E Q  Q  E Q    H    Q.   E   Q.   Q  E E E
|------3----|------3--3----|-0----3----0-|-0----0--0------|
|-0----0----|-0-3--0----3--|-1----1------|-1----1--1-3-3--|
|------0----|------0-------|-0----0------|-0----0--0-0-0--|
|------0----|------0-------|-2----2------|-2----2--2-0-0--|
|------2----|------2-------|-3-----------|----------------|
|------3----|------3-------|-3-----------|----------------|


  H    H      E Q  Q  E Q    H    Q.   E   Q.   Q  E E E
|------3----|------3--3----|-0----3----0-|-0----0--0------|
|-0----0----|-0-3--0----3--|-1----1------|-1----1--1-3-3--|
|------0----|------0-------|-0----0------|-0----0--0-0-0--|
|------0----|------0-------|-2----2------|-2----2--2-0-0--|
|------2----|------2-------|-3-----------|----------------|
|------3----|------3-------|-3-----------|----------------|


  H    H      E Q  Q  E Q    H    Q.   E   Q.   Q  E E E
|------3----|------3--3----|-0----3----0-|-0----0--0------||
|-0----0----|-0-3--0----3--|-1----1------|-1----1--1-3-3--||
|------0----|------0-------|-0----0------|-0----0--0-0-0--||
|------0----|------0-------|-2----2------|-2----2--2-0-0--||
|------2----|------2-------|-3-----------|----------------||
|------3----|------3-------|-3-----------|----------------||


 Bridge 2
  E E Q  Q  E E   E E E Q  Q  E   Q  E Q  E E E   E Q  Q  Q  E
|-0-2-2--2--2-2-|-3-2-2-0--2--2-|---------------|---------------|
|--------3------|-1-3-3-1--3----|-5--5-5--5-5-5-|-3-5--5--5-----|
|--------2------|-0--------2----|-5--5-5--------|-4-5--5--5-----|
|---------------|---------------|-5----5--------|-5-5--5-----7--|
|---------------|---------------|---------------|---------------|
|---------------|---------------|---------------|---------------|


                                  Gtr IV
  Q  Q  Q  E E   E E E Q  E E E   W          +H     Q  Q
|-2--2--2--2-2-|-3-2-2-2--0-2---|----------|--------------||
|-3-----3------|-3-3---3------3-|----------|--------------||
|-2-----2------|-------2--------|-5--------|-(5)----5--7--||
|--------------|----------------|-5--------|-(5)----5--7--||
|--------------|----------------|-3--------|-(3)----3--5--||
|--------------|----------------|----------|--------------||


 Pre-Chorus
  PM----|        PM----|        PM------|
  E E E E H      E E E E H      E E E E E E Q    +W
|--------------|--------------|----------------|--------|
|--------------|--------------|----------------|--------|
|--------------|--------------|----------------|--------|
|-9-9-9-9-9----|-7-7-7-7-7----|-5-5-5-5-5---5--|-(5)----|
|-7-7-7-7-7----|-5-5-5-5-5----|-3-3-3-3-3-x-5--|-(5)----|
|--------------|--------------|-------------3--|-(3)----|


  PM----|        PM----|        PM----|
  E E E E H      E E E E H      E E E E Q  E E
|--------------|--------------|----------------|
|--------------|--------------|----------------|
|--------------|---------5----|---------7----7-|
|-9-9-9-9-9----|-5-5-5-5-5----|-7-7-7-7-7--x-7-|
|-7-7-7-7-7----|-3-3-3-3-3----|-5-5-5-5-5--x-5-|
|--------------|--------------|----------------|


  W          W                      +W
|----------|----------------------|--------||
|----------|----------------------|--------||
|-7--------|-7--------------------|-(7)----||
|-7--------|-7--------------------|-(7)----||
|-5--------|-5--------------------|-(5)----||
|----------|----------------------|--------||
|
| Gtr I
|                                    ~~~
| W          E E E E  Q.      S S    W
|----------|-----3-7-10b12---10p8h|=10-----||
|----------|---7------------------|--------||
|----------|-7--------------------|--------||
|----------|----------------------|--------||
|----------|----------------------|--------||
|----------|----------------------|--------||


 Chorus
  H    H      H    +E  E Q    +W           q.   q.   q
|-----------|---------------|------------|--------------|
|-----------|---------------|------------|--------------|
|-5----7----|------------7--|-(7)--------|--------------|
|-5----7----|-5----(5)---7--|-(7)--------|-5----5----5--|
|-3----5----|-5----(5)---5--|-(5)--------|-3----3----3--|
|-----------|-3----(3)------|------------|--------------|


  W          H    +E  E Q    +W           q.   q.   q
|----------|---------------|------------|--------------|
|----------|---------------|------------|--------------|
|-7--------|-9----(9)---2--|-(2)--------|--------------|
|-7--------|-9----(9)---2--|-(2)--------|-5----5----5--|
|-5--------|-7----(7)---0--|-(0)--------|-3----3----3--|
|----------|---------------|------------|--------------|


   H     H      H    +E  E Q    +W           q.   q.   q
|-------------|---------------|------------|--------------|
|-------------|---------------|------------|--------------|
|-------------|------------7--|-(7)--------|--------------|
|-12----12S===|=5----(5)---7--|-(7)--------|-9----9----9--|
|-12----12S===|=5----(5)---5--|-(5)--------|-7----7----7--|
|-10----10S===|=3----(3)------|------------|--------------|


                                   Guitar Solo 1
  W          W          W           H.      +Q
|----------|----------|----------||---------------|
|----------|----------|----------||---------------|
|----------|-5--------|-7--------||---------------|
|-7--------|-5--------|-7--------||-5-------(5)\--|
|-7--------|-3--------|-5--------||-5-------(5)\--|
|-5--------|----------|----------||-3-------(3)\--|


  Gtr II
  E E E E E E E E   H      H      Q   E  S E. Q   E   E E E E E E E E
|-----------------|-2b4----3----|-3---5--5h7--5---3-|-3S2-2S3-2-0------|
|-----------3-5-3-|-------------|-------------------|-------------3-0--|
|-----0-2-4-------|-------------|-------------------|------------------|
|---0-------------|-------------|-------------------|------------------|
|-----------------|-------------|-------------------|------------------|
|-----------------|-------------|-------------------|------------------|
|
| Gtr III
| W                 H      H      E E Q.      E E E   Q   Q   H
|-----------------|-3------3----|-----3---------3---|-0---0---0--------|
|-----------------|-0------0----|---0-0---------0---|-1-------1--------|
|-----------------|-0------0----|-0-----------0-0-0-|-0-------0--------|
|-----------------|-0------0----|---------------0---|-2-------2--------|
|-----------------|-2------2----|-------------------|-3-------3--------|
|-----------------|-3------3----|-------------------|------------------|


  +E  Q   Q  E E E   E E Q  S Q  S  E    +E   Q   E  Q    E  E
|---------0--3-3h5-|-5-7-7--7-8--8-10-|-(10)-12--14-15---15-15-|
|-(0)-3------------|------------------|------------------------|
|------------------|------------------|------------------------|
|------------------|------------------|------------------------|
|------------------|------------------|------------------------|
|------------------|------------------|------------------------|
|
|  E  E E Q  E Q     H      H             E   Q   Q    E  E  E
|-----0------0-----|-3------3---------|-------0-----------0----|
|--3------3--------|-0------0---------|---3------------3-------|
|-------0-0----0---|-0------0---------|-----------0----------0-|
|---------0--------|-0------0---------|-----------0------------|
|------------------|-2------2---------|-----------2------------|
|------------------|-3------3---------|------------------------|


   S  S  E.         S S S S  S S S E      S S   E  Q  Q   E Q
|-15-14-12tr14-----10-8-7-8-10-8-7-8tr7---5-3-|-7--8--8---7-5--||
|---------------------------------------------|----------------||
|---------------------------------------------|----------------||
|---------------------------------------------|----------------||
|---------------------------------------------|----------------||
|---------------------------------------------|----------------||
|
|  S  S  S     S S  S S S S  S S S S    S S S   Q.    Q.    Q
|-----0-------------0--------0----------0-----|-0-----0-----0--||
|--3-----3-------3----3---3----3---3------3---|-3-----3-----3--||
|--------------0--------0--------0----------0-|-0-----0-----0--||
|---------------------------------------------|----------------||
|---------------------------------------------|----------------||
|---------------------------------------------|----------------||


 Verse 3
  W           W              W             W
|-7---------|--------------|-------------|----------------|
|-8---------|--------------|-------------|----------------|
|-0---------|--------------|-------------|----------------|
|-----------|--------------|-------------|----------------|
|-----------|--------------|-------------|----------------|
|-----------|--------------|-------------|----------------|
|
| H    H      E Q  Q  E Q    H    Q.   E   Q.   Q  E E E
|------3----|------3--3----|-0----3----0-|-0----0--0------|
|-0----0----|-0-3--0----3--|-1----1------|-1----1--1-3-3--|
|------0----|------0-------|-0----0------|-0----0--0-0-0--|
|------0----|------0-------|-2----2------|-2----2--2-0-0--|
|------2----|------2-------|-3-----------|----------------|
|------3----|------3-------|-3-----------|----------------|


  Gtr III
  H    H      E Q  Q  E Q    H    Q.   E   Q.   Q  E E E
|------3----|------3--3----|-0----3----0-|-0----0--0------|
|-0----0----|-0-3--0----3--|-1----1------|-1----1--1-3-3--|
|------0----|------0-------|-0----0------|-0----0--0-0-0--|
|------0----|------0-------|-2----2------|-2----2--2-0-0--|
|------2----|------2-------|-3-----------|----------------|
|------3----|------3-------|-3-----------|----------------|


  H    H      E Q  Q  E Q    H    Q.   E   Q.   Q  E E E
|------3----|------3--3----|-0----3----0-|-0----0--0------|
|-0----0----|-0-3--0----3--|-1----1------|-1----1--1-3-3--|
|------0----|------0-------|-0----0------|-0----0--0-0-0--|
|------0----|------0-------|-2----2------|-2----2--2-0-0--|
|------2----|------2-------|-3-----------|----------------|
|------3----|------3-------|-3-----------|----------------|


  H    H      E Q  Q  E Q    H    Q.   E   Q.   Q  E E E
|------3----|------3--3----|-0----3----0-|-0----0--0------||
|-0----0----|-0-3--0----3--|-1----1------|-1----1--1-3-3--||
|------0----|------0-------|-0----0------|-0----0--0-0-0--||
|------0----|------0-------|-2----2------|-2----2--2-0-0--||
|------2----|------2-------|-3-----------|----------------||
|------3----|------3-------|-3-----------|----------------||


 Bridge 3
  E E Q  Q  E E   E E E Q  Q  E   Q  E Q  E E E   E Q  Q  Q  E
|-0-2-2--2--2-2-|-3-2-2-0--2--2-|---------------|---------------|
|--------3------|-1-3-3-1--3----|-5--5-5--5-5-5-|-3-5--5--5-----|
|--------2------|-0--------2----|-5--5-5--------|-4-5--5--5-----|
|---------------|---------------|-5----5--------|-5-5--5-----7--|
|---------------|---------------|---------------|---------------|
|---------------|---------------|---------------|---------------|


                                  Gtr IV
  Q  Q  Q  E E   E E E Q  E E E   W          +H     Q  Q
|-2--2--2--2-2-|-3-2-2-2--0-2---|----------|--------------||
|-3-----3------|-3-3---3------3-|----------|--------------||
|-2-----2------|-------2--------|-5--------|-(5)----5--7--||
|--------------|----------------|-5--------|-(5)----5--7--||
|--------------|----------------|-3--------|-(3)----3--5--||
|--------------|----------------|----------|--------------||


 Pre-Chorus
  PM----|        PM----|        PM------|
  E E E E H      E E E E H      E E E E E E Q    +W
|--------------|--------------|----------------|--------|
|--------------|--------------|----------------|--------|
|--------------|--------------|----------------|--------|
|-9-9-9-9-9----|-7-7-7-7-7----|-5-5-5-5-5---5--|-(5)----|
|-7-7-7-7-7----|-5-5-5-5-5----|-3-3-3-3-3-x-5--|-(5)----|
|--------------|--------------|-------------3--|-(3)----|


  PM----|        PM----|        PM----|
  E E E E H      E E E E H      E E E E Q  E E
|--------------|--------------|-------------------|
|--------------|--------------|-------------------|
|--------------|---------5----|---------7----7----|
|-9-9-9-9-9----|-5-5-5-5-5----|-7-7-7-7-7--x-7----|
|-7-7-7-7-7----|-3-3-3-3-3----|-5-5-5-5-5--x-5----|
|--------------|--------------|-------------------|


  +W           W                                     +W
|------------|-------------------------------------|-----------------------||
|------------|-------------------------------------|-----------------------||
|-(7)--------|-7-----------------------------------|-(7)-------------------||
|-(7)--------|-7-----------------------------------|-(7)-------------------||
|-(5)--------|-5-----------------------------------|-(5)-------------------||
|------------|-------------------------------------|-----------------------||
|
| Gtr I
|                                                     ~~~~~~~~~~      ~~
|  W           S S S S S S S S S S S S  S  S  S  S    E.    +E.  S S  H
|------------|-------------------------------------|-10b12-(10)-10-8-10----||
|------------|---------------7-3-5-7-8-10-12-13-15-|-----------------------||
|------------|---------5-7-9-----------------------|-----------------------||
|------------|-0-4-7-9-----------------------------|-----------------------||
|------------|-------------------------------------|-----------------------||
|------------|-------------------------------------|-----------------------||


 Chorus
  H    H      H    +E  E Q    +W           E Q  E Q  E E
|-----------|---------------|------------|----------------|
|-----------|---------------|------------|----------------|
|-5----7----|------------7--|-(7)--------|----------------|
|-5----7----|-5----(5)---7--|-(7)--------|-5----5----5----|
|-3----5----|-5----(5)---5--|-(5)--------|-3----3----3----|
|-----------|-3----(3)------|------------|----------------|


  W          H    +E  E Q    +W           E Q  E Q  E E
|----------|---------------|------------|----------------|
|----------|---------------|------------|----------------|
|-7--------|-9----(9)---2--|-(2)--------|----------------|
|-7--------|-9----(9)---2--|-(2)--------|-5----5----5----|
|-5--------|-7----(7)---0--|-(0)--------|-3----3----3----|
|----------|---------------|------------|----------------|


   H     H      H    +E  E Q    +W           E Q  E Q  E E
|-------------|---------------|------------|----------------|
|-------------|---------------|------------|----------------|
|-------------|------------7--|-(7)--------|----------------|
|-12----12S===|=5----(5)---7--|-(7)--------|-9----9----9----|
|-12----12S===|=5----(5)---5--|-(5)--------|-7----7----7----|
|-10----10S===|=3----(3)------|------------|----------------|


  W          W          W          W          +W
|----------|----------|----------|----------|--------||
|----------|----------|----------|----------|--------||
|----------|-5--------|-7--------|----------|--------||
|-7--------|-5--------|-7--------|-5--------|-(5)----||
|-7--------|-3--------|-5--------|-5--------|-(5)----||
|-5--------|----------|----------|-3--------|-(3)----||


 Guitar Solo 2
  Gtr I
                  ~~~~~~~~~~~~~~
   E  E  E  E  E  Q.        +H      +Q       E E
|----------12-14-14b15---|-(14)----(14)b16r=12-7-|
|-------12---------------|-----------------------|
|----12------------------|-----------------------|
|-14---------------------|-----------------------|
|------------------------|-----------------------|
|------------------------|-----------------------|
|
| Gtr IV
|  W                        +W
|------------------------|-----------------------|
|------------------------|-----------------------|
|------------------------|-----------------------|
|--9---------------------|--(9)------------------|
|--7---------------------|--(7)------------------|
|--0---------------------|--(0)------------------|


                    ~~~
   H..         E    H     E E S S S S
|-10b12r======10-|-10-----8-7-8-7-5-3---|
|----------------|----------------------|
|----------------|----------------------|
|----------------|----------------------|
|----------------|----------------------|
|----------------|----------------------|
|
|  W               +W
|----------------|----------------------|
|----------------|----------------------|
|----------------|----------------------|
|--5-------------|-(5)------------------|
|--5-------------|-(5)------------------|
|--3-------------|-(3)------------------|


                   ~~~~~~~~~~       ~~~~~~~~~           ~~~~~~~~
  H..       S S    H     +Q   E E   H    +E  E E S S    H     Q  Q
|-5b7r======5-3-|--5-----(5)--3-2-|-3----(3)-2-------|----------------|
|---------------|-----------------|------------5-7-5-|----------------|
|---------------|-----------------|------------------|--4-----4-------|
|---------------|-----------------|------------------|----------------|
|---------------|-----------------|------------------|----------------|
|---------------|-----------------|------------------|----------------|
|
| W               +W                W                  +W
|---------------|-----------------|------------------|----------------|
|---------------|-----------------|------------------|----------------|
|-7-------------|-(7)-------------|-9----------------|-(9)------------|
|-7-------------|-(7)-------------|-9----------------|-(9)------------|
|-5-------------|-(5)-------------|-7----------------|-(7)------------|
|---------------|-----------------|------------------|----------------|


                     ~~~~~~~~~
   Q.      +Q.    E  E    +H.       E  E
|-17b19---(17)---15-17-|-(17)------15-14-|
|----------------------|-----------------|
|----------------------|-----------------|
|----------------------|-----------------|
|----------------------|-----------------|
|----------------------|-----------------|
|
|  W                      +W
|----------------------|-----------------|
|----------------------|-----------------|
|----------------------|-----------------|
|--7-------------------|--(7)------------|
|--7-------------------|--(7)------------|
|--5-------------------|--(5)------------|


                                                  ~~~
   S  S  E  E  E  E  E  E  E    E   E  E     S S  Q.   E
|-15-14-12-14-10----10-------|-----------------------------|
|----------------12----12-10-|--8--10-10b12-10-8-10--------|
|----------------------------|-----------------------------|
|----------------------------|-----------------------------|
|----------------------------|-----------------------------|
|----------------------------|-----------------------------|
|
|  W                           +W
|----------------------------|-----------------------------|
|----------------------------|-----------------------------|
|----------------------------|-----------------------------|
|--2-------------------------|-(2)-------------------------|
|--2-------------------------|-(2)-------------------------|
|--0-------------------------|-(0)-------------------------|


  E E S S E E E E E    S  S E E E E E E E
|-----------------5-|--7h=8p7-5-7-5-3-2-3-|
|-3-5-7h8p7-5-7-8---|---------------------|
|-------------------|---------------------|
|-------------------|---------------------|
|-------------------|---------------------|
|-------------------|---------------------|
|
| W                   +W
|-------------------|---------------------|
|-------------------|---------------------|
|-5-----------------|-(5)-----------------|
|-5-----------------|-(5)-----------------|
|-3-----------------|-(3)-----------------|
|-------------------|---------------------|


  |-3--| |--3--|  |--3--|  |--3--| |-3--|  |--3--| |--3--|  |--3--|
  S  S S S  S  S  S  S  S  S   S S S S  S  S  S  S S  S  S  S  S  S
|-------------------------------------------------------------------|
|-3--5-7-8-10-12-13-15-13-12--10-8-7-8-10-12-13-15-8-10-12-13-15-17-|
|-------------------------------------------------------------------|
|-------------------------------------------------------------------|
|-------------------------------------------------------------------|
|-------------------------------------------------------------------|
|
| Q.                       Q.                      Q
|-------------------------------------------------------------------|
|-------------------------------------------------------------------|
|-7------------------------7-----------------------7----------------|
|-7------------------------7-----------------------7----------------|
|-5------------------------5-----------------------5----------------|
|-------------------------------------------------------------------|


   |--3--|  |--3--|  |--3--|  |--3--|  |--3--|  |--3--|  |--3--|  |--3--|
   S  S  S  S  S  S  S  S  S  S  S  S  S  S  S  S  S  S  S  S  S  S  S  S
|----------------14-------------14-15----------14-15-17-------14-15-17-19-||
|-10-12-13-15-17----12-13-15-17-------13-15-17----------15-17-------------||
|-------------------------------------------------------------------------||
|-------------------------------------------------------------------------||
|-------------------------------------------------------------------------||
|-------------------------------------------------------------------------||
|
|  E        E        E        E        E        E        Q
|-------------------------------------------------------------------------||
|-------------------------------------------------------------------------||
|-------------------------------------------------------------------------||
|--7--------7--------7--------7--------7--------7--------7----------------||
|--5--------5--------5--------5--------5--------5--------5----------------||
|-------------------------------------------------------------------------||


 Pre-Chorus
   ~~~~~~~~~~~~~~~~~~~~~~~~~~
   H           +H        +W               W                 W
|-22b24-------(22)----|-(22)------------|----------------|--------|
|---------------------|-----------------|----------------|--------|
|---------------------|-----------------|----------------|--------|
|---------------------|-----------------|----------------|--------|
|---------------------|-----------------|----------------|--------|
|---------------------|-----------------|----------------|--------|
|
|  E    E E E   H         E  E E E H      E E E E E E Q    +W
|---------------------|-----------------|----------------|--------|
|---------------------|-----------------|----------------|--------|
|---------------------|------------7----|----------------|--------|
|--9----9-9-9---9-----|---7--7-7-7-7----|-5-5-5-5-5---5--|-(5)----|
|--7----7-7-7---7-----|---5--5-5-5-5----|-3-3-3-3-3-x-5--|-(5)----|
|---------------------|-----------------|-------------3--|-(3)----|


  Gtr IV
  E E E E H      E E E E H      E E E E Q  E E   +W
|--------------|--------------|----------------|--------|
|--------------|--------------|----------------|--------|
|--------------|---------5----|---------7----7-|-(7)----|
|-9-9-9-9-9----|-5-5-5-5-5----|-7-7-7-7-7--x-7-|-(7)----|
|-7-7-7-7-7----|-3-3-3-3-3----|-5-5-5-5-5--x-5-|-(5)----|
|--------------|--------------|----------------|--------|


  Gtr I
                               ~~~~~~~~~~~~~~
  E E E E  E  E  S  S  S  S    W
|-----3-5-10-15-15-17-14-15-|-15b17--------||
|---7-----------------------|--------------||
|-7-------------------------|--------------||
|---------------------------|--------------||
|---------------------------|--------------||
|---------------------------|--------------||
|
| Gtr IV
| W                           +W
|---------------------------|--------------||
|---------------------------|--------------||
|-7-------------------------|-(7)----------||
|-7-------------------------|-(7)----------||
|-5-------------------------|-(5)----------||
|---------------------------|--------------||


 Chorus
    >
 ~~~~~~~~~~~~~~~~~~~~~
   +W             +W
|-(15)---------|-(15)---------------|
|--------------|--------------------|
|--------------|--------------------|
|--------------|--------------------|
|--------------|--------------------|
|--------------|--------------------|
|
|   H     H        H     +E  E Q
|--------------|--------------------|
|--------------|--------------------|
|---5-----7----|---------------7----|
|---5-----7----|---5-----(5)---7----|
|---3-----5----|---5-----(5)---5----|
|--------------|---3-----(3)--------|


  Gtr IV
  +W           E Q  E Q  E E   W
|------------|---------------|----------|
|------------|---------------|----------|
|-(7)--------|---------------|-7--------|
|-(7)--------|-5----5----5---|-7--------|
|-(5)--------|-3----3----3---|-5--------|
|------------|---------------|----------|


  H    +E  E Q    +W           Q.   E Q  E E
|---------------|------------|----------------|
|---------------|------------|----------------|
|------------2--|-(2)--------|----------------|
|-2----(2)---2--|-(2)--------|-5----5----5----|
|-2----(2)---0--|-(0)--------|-3----3----3----|
|-0----(0)------|------------|----------------|


   H     H      H    +E  E Q    +W           E Q  E Q  E E
|-------------|---------------|------------|----------------|
|-------------|---------------|------------|----------------|
|-------------|------------7--|-(7)--------|----------------|
|-12----12S===|=5----(5)---7--|-(7)--------|-9----9----9----|
|-12----12S===|=5----(5)---5--|-(5)--------|-7----7----7----|
|-10----10S===|=3----(3)------|------------|----------------|


                                   H.=H
  W          W          W          W          +W
|----------|----------|----------|----------|--------||
|----------|----------|----------|----------|--------||
|----------|-5--------|-7--------|-5--------|-(5)----||
|-7--------|-5--------|-7--------|-5--------|-(5)----||
|-7--------|-3--------|-5--------|-3--------|-(3)----||
|-5--------|----------|----------|----------|--------||


 Outro
  Q=130
 3/4
  H.        +H.        H.        +H.
|---------|----------|---------|----------|
|---------|----------|---------|----------|
|-5-------|-(5)------|-7-------|-(7)------|
|-5-------|-(5)------|-7-------|-(7)------|
|-3-------|-(3)------|-5-------|-(5)------|
|---------|----------|---------|----------|


 4/4
  W          +W           +W           +W
|----------|------------|------------|--------|
|----------|------------|------------|--------|
|----------|------------|------------|--------|
|-5--------|-(5)--------|-(5)--------|-(5)----|
|-5--------|-(5)--------|-(5)--------|-(5)----|
|-3--------|-(3)--------|-(3)--------|-(3)----|


            >
  Q.   Q.   Q    +W           +W           +W
|--------------|------------|------------|--------*|
|--------------|------------|------------|--------*|
|--------------|------------|------------|--------*|
|-5----4----2--|-(2)--------|-(2)--------|-(2)----*|
|-5----4----2--|-(2)--------|-(2)--------|-(2)----*|
|-3----2----0--|-(0)--------|-(0)--------|-(0)----*|



Duration Legend
---------------
W - whole; H - half; Q - quarter; E - 8th; S - 16th; T - 32nd; X - 64th; a - acciaccatura
+ - note tied to previous; . - note dotted; .. - note double dotted
Uncapitalized letters represent notes that are staccato (1/2 duration)
Irregular groupings are notated above the duration line
Duration letters will always appear directly above the note/fret number it represents the
duration for.  Duration letters with no fret number below them represent rests.  Multi-
bar rests are notated in the form Wxn, where n is the number of bars to rest for.  Low
melody durations appear below the staff

Tablature Legend
----------------
 h   - hammer-on
 p   - pull-off
 b   - bend
 pb  - pre-bend
 r   - bend release (if no number after the r, then release immediately)
 /\  - slide into or out of (from/to "nowhere")
 s   - legato slide
 S   - shift slide
 - natural harmonic
[n]  - artificial harmonic
n(n) - tapped harmonic
 ~   - vibrato
 tr  - trill
 T   - tap
 TP  - trem. picking
 PM  - palm muting
\n/  - tremolo bar dip; n = amount to dip
 \n  - tremolo bar down
 n/  - tremolo bar up
/n\  - tremolo bar inverted dip
 =   - hold bend; also acts as connecting device for hammers/pulls
 <> - volume swell (louder/softer)
 x   - on rhythm slash represents muted slash
 o   - on rhythm slash represents single note slash

Misc Legend
-----------
 |  - bar
||  - double bar
||o - repeat start
o|| - repeat end
*|  - double bar (ending)
 :  - bar (freetime)
 $  - Segno
 &  - Coda
Tempo markers -  = BPM(8/16=s8/s16), where s8 = swing 8ths, s16 = swing 16ths


            
            
Suggest correction
Creating personal tab
Creating personal tab
You can edit any tab online and save it as your Personal.

You can edit, replace or remove any tab part or add personal notes – all changes will be seen only by you.

Personal tabs can be accessed anytime from any device, even offline.
Learn more »
Give kudos to tab author, rate the tab!
1 2 3 4 5
comments
print report bad tab
1 comment total.
-1 reply
RPH96 30 Mar 29, 2010 09:49 AM

this tab is SO MESSY :/

guest
You may want to rate the tab now too:
select rating
Wanna post a correction for this tab? Suggest correction