Oops, an error
Loading. Please wait.
We have an official Through The Fire And Flames tab made by UG professional guitarists. Check out the tab »
×
22,111 views 24 this week
13 commentsread comments
1 2 3 4 5
x 11
add to favorites
×
Save as Personal and add changes to this tab that will be seen only by you. Learn more ›
×
You can save this tab as Personal to edit and correct it or add notes. All changes will be seen only by you. Learn more »
launch autoscroll
font size
0
reset
guitar tuner
backing track
0:00
0:00
edit
Autoscroll
slow
fast
+/-
esc
set tempo
stop
Author
Difficulty
Intro:
G[-------------------------------------------------------------]
D[-------------------------------------------------------------]
A[-3------3---------------------3------3-----------------------]
E[---------------6------4---3-----------------4------3---3-3-3-]

[------------------------------------------------------------------]
[.---------------------------------5-5-5-5-5-5-5-5-5-5-5-5-5-5-5-5-]
[.-3-3-3-3-3-3-3-3-3-3-3-3-3-3-3-3---------------------------------]
[------------------------------------------------------------------]

[------------------------------------------------------------------]
[-3-3-3-3-3-3-3-3-3-3-3-3-3-3-3-3-1-1-1-1-1-1-1-1-0-0-0-0-0-0-0---.]
[---------------------------------------------------------------1-.]
[------------------------------------------------------------------]

Verse 1:
[------------------------------]
[------------------------------]
[-3--------------------3-----3-]
[--------4------6--------4-4---]

[-----------------------------------------------------------------]
[-----------------------------------------------------------------]
[-3-3-3-3-3-3-3-3-3-3-3-3-3-3-3-3---------------------------------]
[---------------------------------4-4-4-4-4-4-4-4-4-4-4-4-4-4-4-4-]

[-----------------------------------------------------------------]
[-----------------------------------------------------------------]
[---------------------------------3-3-3-3-3-3-3-3-3-3-3-3-3-3-3-3-]
[-6-6-6-6-6-6-6-6-6-6-6-6-6-6-6-6---------------------------------]

[-----------------------------------------------------------------]
[-----------------------------------------------------------------]
[-3-3-3-3-3-3-3-3-3-3-3-3-3-3-3-3---------------------------------]
[---------------------------------4-4-4-4-4-4-4-4-4-4-4-4-4-4-4-4-]

[-----------------------------------------------------------------]
[-----------------------------------------------------------------]
[---------------------------------3-3-3-3-3-3-3-3-3-3-3-3-3-3-3-3-]
[-6-6-6-6-6-6-6-6-6-6-6-6-6-6-6-6---------------------------------]

[-----------------------------------------------------------------]
[-----------------------------------------------------------------]
[-3-3-3-3-3-3-3-3-3-3-3-3-3-3-3-3---------------------------------]
[---------------------------------4-4-4-4-4-4-4-4-4-4-4-4-4-4-4-4-]

[-----------------------------------------------------------------]
[-----------------------------------------------------------------]
[---------------------------------3-3-3-3-3-3-3-3-3-3-3---3-3-3---]
[-6-6-6-6-6-6-6-6-6-6-6-6-6-6-6-6---------------------------------]

[--------------------------------------------------]
[-----------6--------/5----------------------------]
[---3---3----------3/-------/8---------------------]
[-------------------------6/-----4---4-4---4-4-4-4-]

[-------------------------------------------------------------]
[---------------------------5------5--------------------------]
[---3-------3---3-3---3-3-3--------------/8-------------------]
[-------4------------------------------6/---4---4-4---4-4-4-4-]

Chorus:
[-----------------------------------------------------------------]
[---------------------------------5-5-5-5-5-5-5-5-5-5-5-5-5-5-5-5-]
[-3-3-3-3-3-3-3-3-3-3-3-3-3-3-3-3---------------------------------]
[-----------------------------------------------------------------]

[-----------------------------------------------------------------]
[-3-3-3-3-3-3-3-3-3-3-3-3-3-3-3-3-1-1-1-1-1-1-1-1-0-0-0-0-0-0-0---]
[---------------------------------------------------------------1-]
[-----------------------------------------------------------------]

[-----------------------------------------------------------------]
[---------------------------------5-5-5-5-5-5-5-5-5-5-5-5-5-5-5-5-]
[-3-3-3-3-3-3-3-3-3-3-3-3-3-3-3-3---------------------------------]
[-----------------------------------------------------------------]

[-----------------------------------------------------------------]
[-3-3-3-3-3-3-3-3-3-3-3-3-3-3-3-3---------------------------------]
[-----------------------------------------------------------------]
[-----------------------------------------------------------------]

Riff:
[------------------------------------------------------------------]
[.---------------------------------5-5-5-5-5-5-5-5-5-5-5-5-5-5-5-5-]
[.-3-3-3-3-3-3-3-3-3-3-3-3-3-3-3-3---------------------------------]
[------------------------------------------------------------------]

[------------------------------------------------------------------]
[-3-3-3-3-3-3-3-3-3-3-3-3-3-3-3-3-1-1-1-1-1-1-1-1-0-0-0-0-0-0-0---.]
[---------------------------------------------------------------1-.]
[------------------------------------------------------------------]

Fill:
[---------------------------------]
[---------------------------------]
[---------------------------------]
[-8-8-6-8-8-6-8-6-8-8-6-8-8-6-8-6-]

Verse 2:
[-----------------------------------------------------------------]
[-----------------------------------------------------------------]
[-3-3-3-3-3-3-3-3-3-3-3-3-3-3-3-3---------------------------------]
[---------------------------------4-4-4-4-4-4-4-4-4-4-4-4-4-4-4-4-]

[-------------------------------------------]
[-------------------------------------------]
[---------------------------------3---16\\4-]
[-6-6-6-6-6-6-6-6-6-6-6-6-6-6-6-6-----------]

[-----------------------------------------------------------------]
[-----------------------------------------------------------------]
[-3-3-3-3-3-3-3-3-3-3-3-3-3-3-3-3---------------------------------]
[---------------------------------4-4-4-4-4-4-4-4-4-4-4-4-4-4-4-4-]

[-----------------------------------------------------------------]
[-----------------------------------------------------------------]
[---------------------------------3-3-3-3-3-3-3-3-3-3-3-3-3-3-3-3-]
[-6-6-6-6-6-6-6-6-6-6-6-6-6-6-6-6---------------------------------]

[-----------------------------------------------------------------]
[-----------------------------------------------------------------]
[-3-3-3-3-3-3-3-3-3-3-3-3-3-3-3-3---------------------------------]
[---------------------------------4-4-4-4-4-4-4-4-4-4-4-4-4-4-4-4-]

[-----------------------------------------------------------------]
[-----------------------------------------------------------------]
[---------------------------------3-3-3-3-3-3-3-3-3-3-3---3-3-3---]
[-6-6-6-6-6-6-6-6-6-6-6-6-6-6-6-6---------------------------------]

[--------------------------------------------------]
[-----------6--------/5----------------------------]
[---3---3----------3/-------/8---------------------]
[-------------------------6/-----4---4-4---4-4-4-4-]

[-------------------------------------------------------------]
[---------------------------5------5--------------------------]
[---3-------3---3-3---3-3-3--------------/8-------------------]
[-------4------------------------------6/---4---4-4---4-4-4-4-]

Chorus:
[-----------------------------------------------------------------]
[---------------------------------5-5-5-5-5-5-5-5-5-5-5-5-5-5-5-5-]
[-3-3-3-3-3-3-3-3-3-3-3-3-3-3-3-3---------------------------------]
[-----------------------------------------------------------------]

[-----------------------------------------------------------------]
[-3-3-3-3-3-3-3-3-3-3-3-3-3-3-3-3-1-1-1-1-1-1-1-1-0-0-0-0-0-0-0---]
[---------------------------------------------------------------1-]
[-----------------------------------------------------------------]

[-----------------------------------------------------------------]
[---------------------------------5-5-5-5-5-5-5-5-5-5-5-5-5-5-5-5-]
[-3-3-3-3-3-3-3-3-3-3-3-3-3-3-3-3---------------------------------]
[-----------------------------------------------------------------]

[-----------------------------------------------------------------]
[-3-3-3-3-3-3-3-3-3-3-3-3-3-3-3-3---------------------------------]
[-----------------------------------------------------------------]
[-----------------------------------------------------------------]

Riff:
[------------------------------------------------------------------]
[.---------------------------------5-5-5-5-5-5-5-5-5-5-5-5-5-5-5-5-]
[.-3-3-3-3-3-3-3-3-3-3-3-3-3-3-3-3---------------------------------]
[------------------------------------------------------------------]

[------------------------------------------------------------------] [---]
[-3-3-3-3-3-3-3-3-3-3-3-3-3-3-3-3-1-1-1-1-1-1-1-1-0-0-0-0-0-0-0---.] [---]
[---------------------------------------------------------------1-.] [-3-]
[------------------------------------------------------------------] [---]

Interlude 1:
[----------------------------------------------------------------]
[----------------------------------------------------------------]
[-1-3------1h3------1-3------3------1-3------1-3------1h3------3-]
[----------------------------------------------------------------]

Solo Intro:
[---------------------------]
[-------1p0-----5-3-1-3-1-0-] x4
[-3-3-3-----3-3-------------]
[---------------------------]

[------------------------------------------------]
[------------------------------------------------]
[-3-----3---------------3-----3----------------3-]
[---4-6---4------6--------4-6---3------4---6-----]

[---------------------------]
[-------1p0-----5-3-1-3-1-0-] x4
[-3-3-3-----3-3-------------]
[---------------------------]

[------------------------------------------------]
[------------------------------------------------]
[-3-----3---------------3-----3----------------3-]
[---4-6---4------6--------4-6---3------4---6-----]

Solo Break:
[--------------------------------------------------]
[--------------------------------------------------]
[-3------3------3----------3------3------3---------]
[-------------------4------------------------4---3-]

Solo:
[-----------------------------------------------------------------]
[-----------------------------------------------------------------]
[-3-3-3-3-3-3-3-3-3-3-3-3-3-3-3-3---------------------------------]
[---------------------------------4-4-4-4-4-4-4-4-4-4-4-4-4-4-4-4-]

[-----------------------------------------------------------------]
[-----------------------------------------------------------------]
[---------------------------------3-3-3---3-3-3---3-3-3-3-3-3-3-3-]
[-6-6-6-6-6-6-6-6-6-6-6-6-6-6-6-6---------------------------------]

[-----------------------------------------------------------------]
[-----------------------------------------------------------------]
[-3-3-3-3-3-3-3-3-3-3-3-3-3-3-3-3---------------------------------]
[---------------------------------4-4-4-4-4-4-4-4-4-4-4-4-4-4-4-4-]

[-----------------------------------------------------------------]
[-----------------------------------------------------------------]
[---------------------------------3-3-3-3-3-3-3-3-3-3-3-3-3-3-3-3-]
[-6-6-6-6-6-6-6-6-6-6-6-6-6-6-6-6---------------------------------]

[-----------------------------------------------------------------]
[-----------------------------------------------------------------]
[-3-3-3-3-3-3-3-3-3-3-3-3-3-3-3-3---------------------------------]
[---------------------------------4-------------------------4---4-]

[-----------------------------------------------------------------]
[-----------------------------------------------------------------]
[---------------------------------3---------------3-3-3-3-3-3-3-3-]
[-6---6---6-------6-6-6-6-6-6-6-6---------------------------------]

[--------------------------------------------------]
[-----------6--------/5----------------------------]
[---3---3----------3/-------/8---------------------]
[-------------------------6/-----4---4-4---4-4-4-4-]

[-------------------------------------------------------------]
[---------------------------5------5--------------------------]
[---3-------3---3-3---3-3-3--------------/8-------------------]
[-------4------------------------------6/---4---4-4---4-4-4-4-]

[-----------------------------------------------------------------]
[---------------------------------5-5-5-5-5-5-5-5-5-5-5-5-5-5-5-5-]
[-3-3-3-3-3-3-3-3-3-3-3-3-3-3-3-3---------------------------------]
[-----------------------------------------------------------------]

[-----------------------------------------------------------------]
[-3-3-3-3-3-3-3-3-3-3-3-3-3-3-3-3-1-1-1-1-1-1-1-1-0-0-0-0-0-0-0---]
[---------------------------------------------------------------1-]
[-----------------------------------------------------------------]

[-----------------------------------------------------------------]
[---------------------------------5-5-5---5-5-5---5-5-5-5-5-5-5-5-]
[-3-3-3-3-3-3-3-3-3-3-3-3-3-3-3-3---------------------------------]
[-----------------------------------------------------------------]

[-----------------------------------------------------------------]
[-3-3-3-3-3-3-3-3-3-3-3-3-3-3-3-3-1-1-1-1-1-1-1-1-0-0-0-0-0-0-0---]
[---------------------------------------------------------------1-]
[-----------------------------------------------------------------]

Interlude 2:
[----------------------------------------------------]
[----------------------------------------------------]
[----------------------3---------------------------3-]
[-3------6------4-------------3------6------4--------]

Chorus:
[-----------------------------------------------------------------]
[---------------------------------5-5-5-5-5-5-5-5-5-5-5-5-5-5-5-5-]
[-3-3-3-3-3-3-3-3-3-3-3-3-3-3-3-3---------------------------------]
[-----------------------------------------------------------------]

[-----------------------------------------------------------------]
[-3-3-3-3-3-3-3-3-3-3-3-3-3-3-3-3-1-1-1-1-1-1-1-1-0-0-0-0-0-0-0---]
[---------------------------------------------------------------1-]
[-----------------------------------------------------------------]

[-----------------------------------------------------------------]
[---------------------------------5-5-5-5-5-5-5-5-5-5-5-5-5-5-5-5-]
[-3-3-3-3-3-3-3-3-3-3-3-3-3-3-3-3---------------------------------]
[-----------------------------------------------------------------]

[-----------------------------------------------------------------]
[-3-3-3-3-3-3-3-3-3-3-3-3-3-3-3-3---------------------------------]
[-----------------------------------------------------------------]
[-----------------------------------------------------------------]

Riff:
[------------------------------------------------------------------]
[.---------------------------------5-5-5-5-5-5-5-5-5-5-5-5-5-5-5-5-]
[.-3-3-3-3-3-3-3-3-3-3-3-3-3-3-3-3---------------------------------]
[------------------------------------------------------------------]

[------------------------------------------------------------------]
[-3-3-3-3-3-3-3-3-3-3-3-3-3-3-3-3-1-1-1-1-1-1-1-1-0-0-0-0-0-0-0---.]
[---------------------------------------------------------------1-.]
[------------------------------------------------------------------]

Outro:
[----------------------------]    [--------]
[----------------------------]    [-5------]
[-3-3-3--3--3--3--3--3-3-3-3-] x3 [--------]
[----------------------------]    [--------]

[-------------------------------------]
[-------------------------------------]
[-7-7-5-5-3-3-1-1-0----1//15--3-3-1-3-]
[-------------------------------------]

            
            
Suggest correction
Creating personal tab
Creating personal tab
You can edit any tab online and save it as your Personal.

You can edit, replace or remove any tab part or add personal notes – all changes will be seen only by you.

Personal tabs can be accessed anytime from any device, even offline.
Learn more »
comments
print report bad tab
13 comments total. Showing first comments.
0 reply
bassguitar56 41 Jun 15, 2008 07:35 AM

nice tab sounds pretty much right

0 reply
ganny1234 50 Jul 02, 2008 04:37 PM

good tab but i think Interlude 2 is incorrect. it might not be but im pretty sure i can hear more then 8 notes. besides that its great

0 reply
bassfinger 10 Aug 27, 2008 07:15 AM

sweet tab man

guest
You may want to rate the tab now too:
select rating
Wanna post a correction for this tab? Suggest correction