Oops, an error
Loading. Please wait.

Anything Anything bass

version 4
version 4

Whole song

Interactive

1,150 views 1 this week
1 commentread comment
1 2 3 4 5
1 last vote to show rating
add to favorites
×
Save as Personal and add changes to this tab that will be seen only by you. Learn more ›
×
You can save this tab as Personal to edit and correct it or add notes. All changes will be seen only by you. Learn more »
launch autoscroll
font size
0
reset
guitar tuner
edit
Autoscroll
slow
fast
+/-
esc
set tempo
stop
Author
Difficulty
-----------------------------------------------------------------------------
		           	     ANYTHING, ANYTHING (I'LL GIVE YOU) - Dramarama
-----------------------------------------------------------------------------

Tabbed By: SPARTAN 101
e-mail: eligeek101@sbcglobal.net

Tuning: Standard

After the guitar plays its bit in the intro, 
the bass repeats this riff throughout the WHOLE song.



G|---------------------------------|
D|---------------------------------|
A|-7---7-7---7-7-------------------|
E|-----------------3---3-3---3-3---|

G|---------------------------------|
D|---------------------------------|
A|-3---3-3---3-3---5---5-5---5-5---|
E|---------------------------------|

G|---------------------------------|
D|---------------------------------|
A|-7---7-7---7-7---10--1010--1010--|
E|---------------------------------|

G|---------------------------------|
D|---------------------------------|
A|-3---3-3---3-3---5---5-5---5-5---|
E|---------------------------------|



| /  slide up
| \  slide down
| h  hammer-on
| p  pull-off
| ~  vibrato
| +  harmonic
| x  Mute note
=============================================================

            
            
Suggest correction
Creating personal tab
Creating personal tab
You can edit any tab online and save it as your Personal.

You can edit, replace or remove any tab part or add personal notes – all changes will be seen only by you.

Personal tabs can be accessed anytime from any device, even offline.
Learn more »
Give kudos to tab author, rate the tab!
1 2 3 4 5
comments
print report bad tab
1 comment total.
0 reply
sparq1472 10 Jul 08, 2016 01:35 PM

Only tabs that are actually correct for this song. Good Work!

guest
You may want to rate the tab now too:
select rating
Wanna post a correction for this tab? Suggest correction