Oops, an error
Loading. Please wait.

No Way tab

version 1
version 1

Whole song

Interactive

475 views 1 this week
no commentswrite comment
1 2 3 4 5
3 more votes to show rating
add to favorites
×
Save as Personal and add changes to this tab that will be seen only by you. Learn more ›
×
You can save this tab as Personal to edit and correct it or add notes. All changes will be seen only by you. Learn more »
launch autoscroll
font size
0
reset
how to read this tab
guitar tuner
edit
Autoscroll
slow
fast
+/-
esc
set tempo
stop
No Way - Dream Evil

Rhythm Guitar Track With Fills. (Sorry Guys No Solos)
If you want the solo extracted from guitar pro,
Send me an Email achaneygtp@hotmail.com
or if you have guitar pro just download the whole tab
which I uploaded




     Q      H         E  S S
D||--------------------------|
A||--------------------------|
F||--------------------------|
C||--2s----14s--------L--L-x-|
G||--0s----12s--------L--L-x-|
C||--------------------------|


  S S S S E  S S E  E  S S E  S S E  S S S S
---------------------------------------------|
---------------------------------------------|
----------7------7--5------4------5----------|
----------7------7--5------4------5----------|
--0-0-0-0----0-0-------0-0----0-0----0-0-0-0-|
---------------------------------------------|


  S S S S E  S S E  E  S S S S S  S  S S S  S
----------------------------------------------|
----------------------------------------------|
----------7------7--5-------------------------|
----------7------7--5-------------------------|
--0-0-0-0----0-0-------0-0-0-0-5p-3p-0---5p-3-|
---------------------------------------2------|


  S S S S E  S S E  E  S S E  S S E  S S S S
---------------------------------------------|
---------------------------------------------|
----------7------7--5------4------5----------|
----------7------7--5------4------5----------|
--0-0-0-0----0-0-------0-0----0-0----0-0-0-0-|
---------------------------------------------|


  S S S S E  S S E  E  E  E  S S E  E  E  E
---------------------------------------------|
---------------------------------------------|
----------5------5--5-----5------5-----5--L--|
----------5------5--5-----5------5-----5--L--|
--0-0-0-0----0-0-------0-----0-0----0--------|
---------------------------------------------|


  S S S S E  S S E  E  S S E  S S E  S S S S
---------------------------------------------|
---------------------------------------------|
----------7------7--5------4------5----------|
----------7------7--5------4------5----------|
--0-0-0-0----0-0-------0-0----0-0----0-0-0-0-|
---------------------------------------------|


  S S S S E  S S E  E  E  E.    S S S S S S
----------------------------------------------|
--------------------------7b---10-8-7---------|
----------7------7--5-----------------9-8-7---|
----------7------7--5-----------------------1-|
--0-0-0-0----0-0-------0----------------------|
----------------------------------------------|


  S S S S E  S S E  E  S S E  S S E  S S S S
---------------------------------------------|
---------------------------------------------|
----------7------7--5------4------5----------|
----------7------7--5------4------5----------|
--0-0-0-0----0-0-------0-0----0-0----0-0-0-0-|
---------------------------------------------|


  S S S S E  S S E  E  E  W                E
---------------------------------------------|
---------------------------------------------|
----------7------7--5-----7----------------L-|
----------7------7--5-----7----------------L-|
--0-0-0-0----0-0-------0---------------------|
---------------------------------------------|


   H.            Q
----------------------|
----------------------|
--14s------------x----|
--12s------------x----|
----------------------|
----------------------|


  S S S S E  S S E  S S S S E  S S E  S S E
---------------------------------------------|
---------------------------------------------|
----------5------5----------5------5------5--|
----------5------5----------5------5------5--|
--0-0-0-0----0-0----0-0-0-0----0-0----0-0----|
---------------------------------------------|


                                 PM PM      W
  S S S S E  S S E  S S S S Q    E  E  E    H
----------------------------------------------|
----------------------------------------------|
----------5------5------------------------<>5-|
----------5------5----------7----8--7--5------|
--0-0-0-0----0-0----0-0-0-0-5----6--5--3------|
----------------------------------------------|


  S S S S E  S S E  S S S S E  S S E  S S E
---------------------------------------------|
---------------------------------------------|
----------5------5----------5------5------5--|
----------5------5----------5------5------5--|
--0-0-0-0----0-0----0-0-0-0----0-0----0-0----|
---------------------------------------------|


  S S S S E  S S E  S S S S H        Q.
----------------------------------------------|
----------------------------------------------|
----------5------5----------------------------|
----------5------5----------7---------------1-|
--0-0-0-0----0-0----0-0-0-0-5--------5------1-|
-------------------------------------5--------|


  S S S S E   E  E  S S S S E   E  E  S S S S
----------------------------------------------|
----------------------------------------------|
----------7s--5--7----------7s--5--7----------|
--0-0-0-0-7s--5--7--0-0-0-0-7s--5--7--0-0-0-0-|
----------------------------------------------|
----------------------------------------------|


  S S S S E  S S E  S S S S E  S S E  S S E
---------------------------------------------|
---------------------------------------------|
----------5------5----------5------5------5--|
----------5------5----------5------5------5--|
--0-0-0-0----0-0----0-0-0-0----0-0----0-0----|
---------------------------------------------|


  S S S S E   E  E  S S S S E   E  E  S S S S
----------------------------------------------|
----------------------------------------------|
----------7s--5--7----------7s--5--7----------|
--0-0-0-0-7s--5--7--0-0-0-0-7s--5--7--0-0-0-0-|
----------------------------------------------|
----------------------------------------------|


                                            \
  S S S S E  S S E  S S S S E  S S E  S S   Q
----------------------------------------------|
----------------------------------------------|
----------5------5----------5------5------<>5-|
----------5------5----------5------5----------|
--0-0-0-0----0-0----0-0-0-0----0-0----0-0-----|
----------------------------------------------|


  PM PM    PM    PM PM    PM    PM PM    PM
  E  E  E  E  E  E  E  E  E  E  E  E  E  E  E
----------------------------------------------|
----------------------------------------------|
----------------------------------------------|
----------------------------------------------|
--------3-----2--------3-----2--------3-----2-|
--3--3-----3-----3--3-----3-----3--3-----3----|


  PM PM    PM    PM PM    PM    PM PM
  E  E  E  E  E  E  E  E  E  E  E  E  E  E  E
----------------------------------------------|
----------------------------------------------|
----------------------------------------------|
----------------------------------------------|
--------3-----2--------3-----2--------3--5--5-|
--5--5-----5-----5--5-----5-----5--5-----5--5-|


  S S S S E  S S E  E  S S E  S S E  S S S S
---------------------------------------------|
---------------------------------------------|
----------7------7--5------4------5----------|
----------7------7--5------4------5----------|
--0-0-0-0----0-0-------0-0----0-0----0-0-0-0-|
---------------------------------------------|


                               PM PM      W
  S S S S E  S S E  E  E  Q    E  E  E    H
---------------------------------------------|
---------------------------------------------|
----------7------7--5-------------------<>5--|
----------7------7--5-----7----8--7--5-------|
--0-0-0-0----0-0-------0--5----6--5--3-------|
---------------------------------------------|


  S S S S E  S S E  E  S S E  S S E  S S S S
---------------------------------------------|
---------------------------------------------|
----------7------7--5------4------5----------|
----------7------7--5------4------5----------|
--0-0-0-0----0-0-------0-0----0-0----0-0-0-0-|
---------------------------------------------|


  Q.     Q.     Q.     Q.     Q    Q
----------------------------------------|
----------------------------------------|
----------------------------------------|
--7------7--------------------5----5----|
--5------5------5------5------3----3----|
----------------5------5----------------|


  S S S S E  S S E  E  S S E  S S E  S S S S
---------------------------------------------|
---------------------------------------------|
----------7------7--5------4------5----------|
----------7------7--5------4------5----------|
--0-0-0-0----0-0-------0-0----0-0----0-0-0-0-|
---------------------------------------------|


  S S S S E  S S E  E  E  E.   S S S S S  S S
----------------------------------------------|
----------------------------------------------|
----------7------7--5-----5b---5--------------|
----------7------7--5------------7-5----------|
--0-0-0-0----0-0-------0-------------7-5----7-|
-----------------------------------------10---|


  S S S S E  S S E  S S S S E  S S E  S S E
---------------------------------------------|
---------------------------------------------|
----------5------5----------5------5------5--|
----------5------5----------5------5------5--|
--0-0-0-0----0-0----0-0-0-0----0-0----0-0----|
---------------------------------------------|


                                 PM PM      W
  S S S S E  S S E  S S S S Q    E  E  E    H
----------------------------------------------|
----------------------------------------------|
----------5------5------------------------<>5-|
----------5------5----------7----8--7--5------|
--0-0-0-0----0-0----0-0-0-0-5----6--5--3------|
----------------------------------------------|


  S S S S E  S S E  S S S S E  S S E  S S E
---------------------------------------------|
---------------------------------------------|
----------5------5----------5------5------5--|
----------5------5----------5------5------5--|
--0-0-0-0----0-0----0-0-0-0----0-0----0-0----|
---------------------------------------------|


  S S S S E  S S E  S S S S H        Q.
----------------------------------------------|
----------------------------------------------|
----------5------5----------------------------|
----------5------5----------7---------------1-|
--0-0-0-0----0-0----0-0-0-0-5--------5------1-|
-------------------------------------5--------|


  S S S S E   E  E  S S S S E   E  E  S S S S
----------------------------------------------|
----------------------------------------------|
----------7s--5--7----------7s--5--7----------|
--0-0-0-0-7s--5--7--0-0-0-0-7s--5--7--0-0-0-0-|
----------------------------------------------|
----------------------------------------------|


  S S S S E  S S E  S S S S E  S S E  S S E
---------------------------------------------|
---------------------------------------------|
----------5------5----------5------5------5--|
----------5------5----------5------5------5--|
--0-0-0-0----0-0----0-0-0-0----0-0----0-0----|
---------------------------------------------|


  S S S S E   E  E  S S S S E   E  E  S S S S
----------------------------------------------|
----------------------------------------------|
----------7s--5--7----------7s--5--7----------|
--0-0-0-0-7s--5--7--0-0-0-0-7s--5--7--0-0-0-0-|
----------------------------------------------|
----------------------------------------------|


                                            \
  S S S S E  S S E  S S S S E  S S E  S S   Q
----------------------------------------------|
----------------------------------------------|
----------5------5----------5------5------<>5-|
----------5------5----------5------5----------|
--0-0-0-0----0-0----0-0-0-0----0-0----0-0-----|
----------------------------------------------|


  PM PM    PM    PM PM    PM    PM PM    PM
  E  E  E  E  E  E  E  E  E  E  E  E  E  E  E
----------------------------------------------|
----------------------------------------------|
----------------------------------------------|
----------------------------------------------|
--------3-----2--------3-----2--------3-----2-|
--3--3-----3-----3--3-----3-----3--3-----3----|


  PM PM    PM    PM PM    PM    PM PM
  E  E  E  E  E  E  E  E  E  E  E  E  E  E  E
----------------------------------------------|
----------------------------------------------|
----------------------------------------------|
----------------------------------------------|
--------3-----2--------3-----2--------3--5--5-|
--5--5-----5-----5--5-----5-----5--5-----5--5-|


  S S S S E  S S E  E  S S E  S S E  S S S S
---------------------------------------------|
---------------------------------------------|
----------7------7--5------4------5----------|
----------7------7--5------4------5----------|
--0-0-0-0----0-0-------0-0----0-0----0-0-0-0-|
---------------------------------------------|


                               PM PM      W
  S S S S E  S S E  E  E  Q    E  E  E    H
---------------------------------------------|
---------------------------------------------|
----------7------7--5-------------------<>5--|
----------7------7--5-----7----8--7--5-------|
--0-0-0-0----0-0-------0--5----6--5--3-------|
---------------------------------------------|


  S S S S E  S S E  E  S S E  S S E  S S S S
---------------------------------------------|
---------------------------------------------|
----------7------7--5------4------5----------|
----------7------7--5------4------5----------|
--0-0-0-0----0-0-------0-0----0-0----0-0-0-0-|
---------------------------------------------|


  Q.     Q.     Q.     Q.     Q    Q
----------------------------------------|
----------------------------------------|
----------------------------------------|
--7------7--------------------5----5----|
--5------5------5------5------3----3----|
----------------5------5----------------|


  S S S S E  S S E  E  S S E  S S E  S S S S
---------------------------------------------|
---------------------------------------------|
----------7------7--5------4------5----------|
----------7------7--5------4------5----------|
--0-0-0-0----0-0-------0-0----0-0----0-0-0-0-|
---------------------------------------------|


  S S S S E  S S E  E  E  H         Q.      Q
----------------------------------------------|
----------------------------------------------|
----------7------7--5-------------------------|
----------7------7--5-----7--------12s------x-|
--0-0-0-0----0-0-------0--5--------12s------x-|
----------------------------------------------|


     PM PM PM             PM PM PM
  E  E  E  E  H        E  E  E  E  H
--------------------------------------------|
--------------------------------------------|
--------------4-----------------------------|
--------------2--------------------5--------|
--2--2--2--2-----------2--2--2--2--3--------|
--2--2--2--2-----------2--2--2--2-----------|


     PM PM PM
  E  E  E  E  H        E  E  E  Q    Q    E
---------------------------------------------|
---------------------------------------------|
--------------4-----------------7----6-------|
--------------2-----------7--L--5----4----7--|
--2--2--2--2-----------2--5--L------------5--|
--2--2--2--2-----------2---------------------|


     PM PM PM             PM PM PM
  E  E  E  E  H        E  E  E  E  H
--------------------------------------------|
--------------------------------------------|
--------------4-----------------------------|
--------------2--------------------5--------|
--2--2--2--2-----------2--2--2--2--3--------|
--2--2--2--2-----------2--2--2--2-----------|


                              PH
  H.           H.             H
----------------------------------------|
----------------------------<>8~--------|
----------------------------<>7~--------|
----------------------------------------|
--7------------5------------------------|
--7------------5------------------------|


     PM PM PM             PM PM PM
  E  E  E  E  H        E  E  E  E  H
--------------------------------------------|
--------------------------------------------|
--------------4-----------------------------|
--------------2--------------------5--------|
--2--2--2--2-----------2--2--2--2--3--------|
--2--2--2--2-----------2--2--2--2-----------|


     PM PM PM
  E  E  E  E  H        E  E  E  Q    Q    E
---------------------------------------------|
---------------------------------------------|
--------------4-----------------7----6-------|
--------------2-----------7--L--5----4----7--|
--2--2--2--2-----------2--5--L------------5--|
--2--2--2--2-----------2---------------------|


     PM PM    PM PM    PM PM PM PM PM PM PM P
  E  E  E  E  E  E  E  E  E  E  E  E  E  E  E
----------------------------------------------|
----------------------------------------------|
--7--------7--------7-------------------------|
--5--------5--------5-------------------------|
-----3--3-----3--3-----3--3--3--3--3--3--3--3-|
----------------------------------------------|


     PM PM    PM PM    PM PM PM PM PM
  E  E  E  E  E  E  E  E  E  E  E  E  E  E  E
----------------------------------------------|
----------------------------------------------|
--7--------7--------7-------------------------|
--5--------5--------5--7--7--7--7--7--7--7--7-|
-----5--5-----5--5-----5--5--5--5--5--5--5--5-|
----------------------------------------------|


  S S S S E  S S E  S S S S E  S S E  S S E
---------------------------------------------|
---------------------------------------------|
---------------------------------------------|
----------2------2----------2------2------2--|
----------0------0----------0------0------0--|
--4-4-4-4----4-4----4-4-4-4----4-4----4-4----|


  S S S S E  S S E  S S S S Q    E  E  E  E
---------------------------------------------|
---------------------------------------------|
---------------------------------------------|
----------2------2----------4----5--4--2--4--|
----------0------0----------2----3--2--0--2--|
--4-4-4-4----4-4----4-4-4-4------------------|


  S S S S E  S S E  S S S S E  S S E  S S E
---------------------------------------------|
---------------------------------------------|
---------------------------------------------|
----------2------2----------2------2------2--|
----------0------0----------0------0------0--|
--4-4-4-4----4-4----4-4-4-4----4-4----4-4----|


  S S S S E  S S E  S S S S Q    E  E  E  E
---------------------------------------------|
---------------------------------------------|
---------------------------------------------|
----------2------2----------4----5--4--2--4--|
----------0------0----------2----3--2--0--2--|
--4-4-4-4----4-4----4-4-4-4------------------|


  S S S S E  S S E  S S S S E  S S E  S S E
---------------------------------------------|
---------------------------------------------|
---------------------------------------------|
----------6------6----------6------6------6--|
----------6------6----------6------6------6--|
--6-6-6-6----6-6----6-6-6-6----6-6----6-6----|


  S S S S E  S S E  S S S S Q    E  E  E  E
---------------------------------------------|
---------------------------------------------|
---------------------------------------------|
----------6------6----------6----7--6--4--6--|
----------6------6----------4----5--4--2--4--|
--6-6-6-6----6-6----6-6-6-6------------------|


  S S S S E  S S E  S S S S E  S S E  S S E
---------------------------------------------|
---------------------------------------------|
---------------------------------------------|
----------6------6----------6------6------6--|
----------6------6----------6------6------6--|
--6-6-6-6----6-6----6-6-6-6----6-6----6-6----|


  S S S S E  S S E  S S S S H         E   Q.
---------------------------------------------|
---------------------------------------------|
---------------------------------------------|
----------6------6-----------------------11s-|
----------6------6----------4---------L---9s-|
--6-6-6-6----6-6----6-6-6-6-4---------L------|


  S S S S E  S S E  E  S S E  S S E  S S S S
---------------------------------------------|
---------------------------------------------|
----------7------7--5------4------5----------|
----------7------7--5------4------5----------|
--0-0-0-0----0-0-------0-0----0-0----0-0-0-0-|
---------------------------------------------|


                               PM PM      W
  S S S S E  S S E  E  E  Q    E  E  E    H
---------------------------------------------|
---------------------------------------------|
----------7------7--5-------------------<>5--|
----------7------7--5-----7----8--7--5-------|
--0-0-0-0----0-0-------0--5----6--5--3-------|
---------------------------------------------|


  S S S S E  S S E  E  S S E  S S E  S S S S
---------------------------------------------|
---------------------------------------------|
----------7------7--5------4------5----------|
----------7------7--5------4------5----------|
--0-0-0-0----0-0-------0-0----0-0----0-0-0-0-|
---------------------------------------------|


  Q.     Q.     Q.     Q.     Q    Q
----------------------------------------|
----------------------------------------|
----------------------------------------|
--7------7--------------------5----5----|
--5------5------5------5------3----3----|
----------------5------5----------------|


  S S S S E  S S E  E  S S E  S S E  S S S S
---------------------------------------------|
---------------------------------------------|
----------7------7--5------4------5----------|
----------7------7--5------4------5----------|
--0-0-0-0----0-0-------0-0----0-0----0-0-0-0-|
---------------------------------------------|


                               PM PM      W
  S S S S E  S S E  E  E  Q    E  E  E    H
---------------------------------------------|
---------------------------------------------|
----------7------7--5-------------------<>5--|
----------7------7--5-----7----8--7--5-------|
--0-0-0-0----0-0-------0--5----6--5--3-------|
---------------------------------------------|


  S S S S E  S S E  E  S S E  S S E  S S S S
---------------------------------------------|
---------------------------------------------|
----------7------7--5------4------5----------|
----------7------7--5------4------5----------|
--0-0-0-0----0-0-------0-0----0-0----0-0-0-0-|
---------------------------------------------|


  Q.     Q.     Q.     Q.     Q    Q
----------------------------------------|
----------------------------------------|
----------------------------------------|
--7------7--------------------5----5----|
--5------5------5------5------3----3----|
----------------5------5----------------|


  Q.     W                H        E
--------------------------------------||
--------------------------------------||
--2-----------------------------------||
--2-----------------------------------||
--------------------------------------||
--------------------------------------||




Duration Legend
---------------
W - whole
H - half
Q - quarter
E - 8th
S - 16th
T - 32nd
X - 64th
. - note dotted
|-n-|  - n-tuplets


Tablature Legend
----------------
L - tied note
x - dead note
g - grace note
(n) - ghost note
> - accentuded note
NH - natural harmonic
AH - artificial harmonic
TH - tapped harmonic
SH - semi harmonic
PH - pitch harmonic
h - hammer on
p - pull off
b - bend
br - bendRelease
pb - preBend
pbr - preBendRelease
brb - bendReleaseBend
\n/ - tremolo bar dip
\n - tremolo bar dive
-/n - tremolo bar Release up
/n\ - tremolo bar inverted dip
/n - tremolo bar return
-\n - tremolo bar Release down
S - shift slide
s - legato slide
/ -  slide into from below or out of upwards
\ -  slide into from above or out of downwards
~ - vibrato
W - wide vibrato
tr - trill
TP - tremolo picking
T - tapping
S - slap
P - pop
< - fade in
^ - brush up
v - brush down

            
            
Suggest correction
Creating personal tab
Creating personal tab
You can edit any tab online and save it as your Personal.

You can edit, replace or remove any tab part or add personal notes – all changes will be seen only by you.

Personal tabs can be accessed anytime from any device, even offline.
Learn more »
Give kudos to tab author, rate the tab!
1 2 3 4 5
comments
print report bad tab
guest
You may want to rate the tab now too:
select rating
Wanna post a correction for this tab? Suggest correction