Oops, an error
Loading. Please wait.

The Prophecy tab

version 1
version 1

Whole song

Interactive

1,339 views 1 this week
no commentswrite comment
1 2 3 4 5
2 more votes to show rating
add to favorites
×
Save as Personal and add changes to this tab that will be seen only by you. Learn more ›
×
You can save this tab as Personal to edit and correct it or add notes. All changes will be seen only by you. Learn more »
launch autoscroll
font size
0
reset
how to read this tab
guitar tuner
edit
Autoscroll
slow
fast
+/-
esc
set tempo
stop
#----------------------------------PLEASE NOTE---------------------------------#
#This file is the author's own work and represents their interpretation of the #
#song. You may only use this file for private study, scholarship, or research. #
#------------------------------------------------------------------------------#

THE PROPHECY
As recorded by Dream Evil
(From the 2002 Album DRAGONSLAYER)

Transcribed by Pete (Delirium_Veil)
        

Words by Fredrik, Gus & Magnus Music by Fredrik Nordstrom & Gus. G
Arranged by Dream Evil

Gtr I (C G C F A D) - 'Fredrik Nordstrom'
Gtr II (C G C F A D) - 'Gus G.'
Gtr III (C G C F A D) - 'Gus - Harmony'

 Intro
  Q=140
              D5
 2/4         4/4
  Gtr I
    H         E  S S S  S S S S S S S S S S S
|---------||----------------------------------|
|---------||o---------------------------------|
|---------||----------------------------------|
|---------||--0--3-0-0--5-0-0-7-0-0-8-0-0-5h7-|
|---------||o---------------------------------|
|---------||----------------------------------|
|
| Gtr II
|   H         E  E   H.
|---------||----------------------------------|
|---------||o---------------------------------|
|---------||--7\------------------------------|
|-/12\----||--7\------------------------------|
|-/12\----||o-5\------------------------------|
|---------||----------------------------------|


  S S S S S S S S S S S S S S S S
|----------------------------------|
|----------------------------------|
|----------------------------------|
|-0-0-3-0-0-5-0-0-5-3-2-0-3-2-0----|
|-------------------------------3--|
|----------------------------------|
|
| H               S S S S S S S S
|----------------------------------|
|----------------------------------|
|----------------------------------|
|-----------------5-3-2-0-3-2-0----|
|-------------------------------3--|
|----------------------------------|


  D5
  S  S S S S  S S S S S S S S S S S   S S S S S S S S S S S S S S S S
|-----------------------------------|----------------------------------||
|-----------------------------------|-----------------6-5-------------o||
|-----------------------------------|---------------------7-5----------||
|-0--0-3-0-0--5-0-0-7-0-0-8-0-0-5h7-|-0-0-3-0-0-5-0-0---------8-5-7----||
|-----------------------------------|-------------------------------8-o||
|-----------------------------------|----------------------------------||
|
| E    E   H.                         H               S S S S S S S S
|-----------------------------------|----------------------------------||
|-----------------------------------|---------------------------------o||
|-7\--------------------------------|----------------------------------||
|-7\--------------------------------|-----------------5-3-2-0-3-2-0----||
|-5\--------------------------------|-------------------------------3-o||
|-----------------------------------|----------------------------------||


    $
    D5                              C5
        PM|   PM|   PM|   PM|       PM|   PM|   PM|
    E S S S S S S S S S S S S S S   S S S S S S S S S S S S S S S S
||--------------------------------|---------------------------------|
||o-------------------------------|---------------------------------|
||--------------------------------|---------------------------------|
||--0-3-0-0-5-0-0-7-0-0-8-0-0-5h7-|-0-0-3-0-0-5-0-0-5-3-2-0-3-2-0---|
||o-------------------------------|-------------------------------3-|
||--------------------------------|---------------------------------|
|
|     PM------------------------|     PM--------------------------|
|   E S S S S S S S S S S S S S S   S S S S S S S S S S S S S S S S
||--------------------------------|---------------------------------|
||o-------------------------------|---------------------------------|
||--------------------------------|---------------------------------|
||--7-----------------------------|-5-------------------------------|
||o-5-5-5-5-5-5-5-5-5-5-5-5-5-5-5-|-3-3-3-3-3-3-3-3-3-3-3-3-3-3-3-3-|
||--------------------------------|---------------------------------|


  1.
  D5                                Bb5             C5
  PM|   PM|   PM|   PM|   PM|       PM|   PM|   PM|
  S S S S S S S S S S S S S S S S   S S S S S S S S S S S S S S S S
|---------------------------------|----------------------------------||
|---------------------------------|-----------------6-5-------------o||
|---------------------------------|---------------------7-5----------||
|-0-0-3-0-0-5-0-0-7-0-0-8-0-0-5h7-|-0-0-3-0-0-5-0-0---------8-5-7----||
|---------------------------------|-------------------------------8-o||
|---------------------------------|----------------------------------||
|
|     PM------------------------|     PM----------|   PM----------|
| E   S S S S S S S S S S S S S S   S S S S S S S S S S S S S S S S
|---------------------------------|----------------------------------||
|---------------------------------|---------------------------------o||
|---------------------------------|----------------------------------||
|-7-------------------------------|-3---------------5----------------||
|-5---5-5-5-5-5-5-5-5-5-5-5-5-5-5-|-1-1-1-1-1-1-1-1-3-3-3-3-3-3-3-3-o||
|---------------------------------|----------------------------------||


  2.
  D5                                Bb5
  PM|   PM|   PM|   PM|   PM|       PM|   PM|   PM|
  S S S S S S S S S S S S S S S S   S S S S S S S S S S S S S S S S
|---------------------------------|---------------------------------||
|---------------------------------|-----------------6-5-------------||
|---------------------------------|---------------------7-5---------||
|-0-0-3-0-0-5-0-0-7-0-0-8-0-0-5h7-|-0-0-3-0-0-5-0-0---------8-5-7---||
|---------------------------------|-------------------------------8-||
|---------------------------------|---------------------------------||
|
|   PM--------------------------|     PM----------|
| S S S S S S S S S S S S S S S S   S S S S S S S S S S S S S S S S
|---------------------------------|---------------------------------||
|---------------------------------|---------------------------------||
|---------------------------------|---------------------------------||
|-7-------------------------------|-3---------------5-3-2-0-3-2-0---||
|-5-5-5-5-5-5-5-5-5-5-5-5-5-5-5-5-|-1-1-1-1-1-1-1-1---------------3-||
|---------------------------------|---------------------------------||


 Verse
  D5         C5         D5         Bb5  C5
  Gtrs I, II
  W          W          W          H    H
|----------|----------|----------|-----------|
|----------|----------|----------|-----------|
|-7--------|-5--------|-7--------|-3----5----|
|-7--------|-5--------|-7--------|-3----5----|
|-5--------|-3--------|-5--------|-1----3----|
|----------|----------|----------|-----------|


  D5         C5         Bb5  C5     D5
  W          W          H    H      H.       Q
|----------|----------|-----------|--------------|
|----------|----------|-----------|--------------|
|-7--------|-5--------|-3----5----|-7------------|
|-7--------|-5--------|-3----5----|-7------------|
|-5--------|-3--------|-1----3----|-5-------/x\--|
|----------|----------|-----------|---------/x\--|


    D                                 C
    Gtr I
    PM--------------------------------------------------------------|
    S S S S S S S S S S S S S S S S   S S S S S S S S S S S S S S S S
||----------------------------------|----------------------------------|
||o---------------------------------|----------------------------------|
||----------------------------------|----------------------------------|
||----------------------------------|----------------------------------|
||o-5-5-5-5-5-5-5-5-5-5-5-5-5-5-5-5-|-3-3-3-3-3-3-3-3-3-3-3-3-3-3-3-3--|
||----------------------------------|----------------------------------|
|
|   Gtr II
|   S S S S S S S S S S S S S S S S   S S S S S S S S S S S S S S S S
||----------------------------------|----------------------------------|
||o---------------------------------|----------------------------------|
||----------------------------------|-----------------2-0--------------|
||--3---------3-----3---------3-----|-2---------2---------3-2-5-3-2----|
||o---5-3-0-5---5-3---5-3-0-5---5-3-|---3-0---3---3-0---------------3--|
||----------------------------------|-------5--------------------------|
|
|   Gtr III
|   S S S S S S S S S S S S S S S S   S S S S S S S S S S S S S S S S
||----------------------------------|----------------------------------|
||o-6---------6-----6---------6-----|-5-----------5---5-3--------------|
||----7-5---7---7-5---7-5---7---7-5-|---5-------5---5-----5-3-2--------|
||--------7---------------7---------|-----7---7-----------------5-3-2--|
||o---------------------------------|-------7--------------------------|
||----------------------------------|----------------------------------|


  1.
  D                                 Bb              C
  PM--------------------------------------------------------------|
  S S S S S S S S S S S S S S S S   S S S S S S S S S S S S S S S S
|---------------------------------|----------------------------------||
|---------------------------------|---------------------------------o||
|---------------------------------|----------------------------------||
|---------------------------------|----------------------------------||
|-5-5-5-5-5-5-5-5-5-5-5-5-5-5-5-5-|-1-1-1-1-1-1-1-1-3-3-3-3-3-3-3-3-o||
|---------------------------------|----------------------------------||
|
| S S S S S S S S S S S S S S S S   S S S S S S S S S S S S S S S S
|---------------------------------|----------------------------------||
|---------------------------------|---------------------------------o||
|---------------------------------|-----------------2----------------||
|-3---------3-----3---------3-----|-3---------3-------5-3-2-5-3-2----||
|---5-3-0-5---5-3---5-3-0-5---5-3-|---5-3-0-5---5-3---------------3-o||
|---------------------------------|----------------------------------||
|
| S S S S S S S S S S S S S S S S   S S S S S S S S S S S S S S S S
|---------------------------------|----------------------------------||
|-6---------6-----6---------6-----|-6---------6-----5-3-------------o||
|---7-5---7---7-5---7-5---7---7-5-|---7-5---7---7-5-----5-3-2--------||
|-------7---------------7---------|-------7-------------------5-3-2--||
|---------------------------------|---------------------------------o||
|---------------------------------|----------------------------------||


  2.
  Bb              C                 D
  S S S S S S S S S S S S S S S S   S S S S S S S S S S S S S S S S
|---------------------------------|---------------------------------||
|---------------------------------|---------------------------------||
|---------------------------------|---------------------------------||
|---------------------------------|---------------------------------||
|-1-1-1-1-1-1-1-1-3-3-3-3-3-3-3-3-|-5-5-5-5-5-5-5-5-5-5-5-5-5-5-5-5-||
|---------------------------------|---------------------------------||
|
| S S S S S S S S S S S S S S S S   S S S S S S S S S S S S S S S S
|---------------------------------|---------------------------------||
|---------------------------------|-----------------3-1-------------||
|-----------------2---------------|---------------------2-0---------||
|-3---------3-------5-3-2-5-3-2---|-3---------3-------------3-2-0---||
|---5-3-0-5---5-3---------------3-|---5-3-0-5---5-3---------------3-||
|---------------------------------|---------------------------------||
|
| S S S S S S S S S S S S S S S S   S S S S S S S S S S S S S S S S
|-----------------5---------------|---------------------------------||
|-6---------6-------8-6-5-8-6-5---|-6---------6-----5-3-------------||
|---7-5---7---7-5---------------7-|---7-5---7---7-5-----5-3-2-------||
|-------7-------------------------|-------7-------------------5-3-2-||
|---------------------------------|---------------------------------||
|---------------------------------|---------------------------------||


   Pre-Chorus
    A5                   Bb5                   G5 Bb5
       PM------------|         PM----------|
    Q  S S S S S S S S S E S   S S S S S S S S Q  Q
||---------------------------|-----------------------|
||o--------------------------|-----------------------|
||--2--------------------3-3-|--------------------3--|
||--2--------------------3-3-|-----------------5--3--|
||o-0--0-0-0-0-0-0-0-0-0-1-1-|-0-0-0---0-0-0---5--1--|
||---------------------------|-----------------5-----|
|
|      PM------------|         PM----------|   ~~~~~
|   Q  S S S S S S S S S E S   S S S S S S S S Q  Q
||---------------------------|-----------------------|
||o--------------------------|-----------------------|
||--2--------------------3-3-|-----------------------|
||--2--------------------3-3-|-----------------------|
||o-0--0-0-0-0-0-0-0-0-0-1-1-|-0-0-0---0-0-0---1--5--|
||---------------------------|-----------------------|


  1.
  A5                   Bb5
     PM------------|         PM----------|
  Q  S S S S S S S S S E S   S S S S S S S S S S S S S S S S
|--------------------------|----------------------------------||
|--------------------------|---------------------------------o||
|-2--------------------3-3-|-----------------3-2-0------------||
|-2--------------------3-3-|-----------------------3-2-0------||
|-0--0-0-0-0-0-0-0-0-0-1-1-|-0-0-0---0-0-0---------------4-1-o||
|--------------------------|----------------------------------||
|
| ~  PM------------|         PM----------|
| Q  S S S S S S S S S E S   S S S S S S S S S S S S S S S S
|--------------------------|----------------------------------||
|--------------------------|---------------------------------o||
|----------------------3-3-|----------------------------------||
|----------------------3-3-|-----------------5-3-2------------||
|-4--0-0-0-0-0-0-0-0-0-1-1-|-0-0-0---0-0-0---------5-4-1-0---o||
|--------------------------|-------------------------------5--||


  2.
  A5                         Bb5  C5
     PM------------|
  Q  S S S S S S S S S E S   H    H
|--------------------------|-----------||
|--------------------------|-----------||
|-2--------------------2-2-|-3----5----||
|-2--------------------2-2-|-3----5----||
|-0--0-0-0-0-0-0-0-0-0-0-0-|-1----3----||
|--------------------------|-----------||
|
| ~  PM------------|
| Q  S S S S S S S S S E S   H    H
|--------------------------|-----------||
|--------------------------|-----------||
|----------------------2-2-|-3----5----||
|----------------------2-2-|-3----5----||
|-4--0-0-0-0-0-0-0-0-0-0-0-|-1----3----||
|--------------------------|-----------||


 Chorus
  D5         C5         D5         Bb5  C5
  Gtrs I, II
  W          W          W          H    H
|----------|----------|----------|-----------|
|----------|----------|----------|-----------|
|-7--------|-5--------|-7--------|-3----5----|
|-7--------|-5--------|-7--------|-3----5----|
|-5--------|-3--------|-5--------|-1----3----|
|----------|----------|----------|-----------|


                                      D.S.
  D5         C5         D5         F5   C5
  W          W          W          H    H
|----------|----------|----------|-----------|
|----------|----------|----------|-----------|
|-7--------|-5--------|-7--------|------5----|
|-7--------|-5--------|-7--------|-3----5----|
|-5--------|-3--------|-5--------|-3----3----|
|----------|----------|----------|-3---------|


  D5         C5         D5         Bb5  C5
  W          W          W          H    H
|----------|----------|----------|-----------|
|----------|----------|----------|-----------|
|-7--------|-5--------|-7--------|-3----5----|
|-7--------|-5--------|-7--------|-3----5----|
|-5--------|-3--------|-5--------|-1----3----|
|----------|----------|----------|-----------|


  D5         C5         D5         F5   A5
  W          W          W          H    H
|----------|----------|----------|-----------||
|----------|----------|----------|-----------||
|-7--------|-5--------|-7--------|------2----||
|-7--------|-5--------|-7--------|-3----2----||
|-5--------|-3--------|-5--------|-3----0----||
|----------|----------|----------|-3---------||


   Bridge
    Bb5                             A
      PM----------------------------------------------------------|
    E S S S S S S S S S S S S S S   S S S S S S S S S S S S S S S S
||--------------------------------|---------------------------------|
||o-------------------------------|---------------------------------|
||--3-----------------------------|---------------------------------|
||--3-----------------------------|---------------------------------|
||o-1-1-1-1-1-1-1-1-1-1-1-1-1-1-1-|-0-0-0-0-0-0-0-0-0-0-0-0-0-0-0-0-|
||--------------------------------|---------------------------------|


  1.
  Bb                                C
  Gtr II
  PM----------------------------------------------|
  S S S S S S S S S S S S S S S S   S S S S S S S S S S S S S S S S
|---------------------------------|----------------------------------||
|---------------------------------|---------------------------------o||
|---------------------------------|----------------------------------||
|---------------------------------|-----------------3-2-0---2-0------||
|-1-1-1-1-1-1-1-1-1-1-1-1-1-1-1-1-|-3-3-3-3-3-3-3-3-------3-----3-0-o||
|---------------------------------|----------------------------------||
|
| Gtr I
| PM----------------------------------------------|
| S S S S S S S S S S S S S S S S   S S S S S S S S S S S S S S S S
|---------------------------------|----------------------------------||
|---------------------------------|---------------------------------o||
|---------------------------------|-----------------2----------------||
|---------------------------------|-------------------5-3-2-5-3-2-0--||
|-1-1-1-1-1-1-1-1-1-1-1-1-1-1-1-1-|-3-3-3-3-3-3-3-3-----------------o||
|---------------------------------|----------------------------------||


  2.
  Bb5                             C5   A/C#
    PM------------------------|
  E S S S S S S S S S S S S S S   H    Q  E  E
|-------------------------------|-----------12-|
|-------------------------------|--------------|
|-3-----------------------------|-5------------|
|-3-----------------------------|-5----7-------|
|-1-1-1-1-1-1-1-1-1-1-1-1-1-1-1-|-3----4-------|
|-------------------------------|--------------|
|
|   PM------------------------|
| E S S S S S S S S S S S S S S   H    H
|-------------------------------|--------------|
|-------------------------------|--------------|
|-3-----------------------------|-5------------|
|-3-----------------------------|-5----7-------|
|-1-1-1-1-1-1-1-1-1-1-1-1-1-1-1-|-3----4-------|
|-------------------------------|--------------|


   Interlude
    D5                      A/C#
     S  S  S  S  S  S  S  S  S  S  S S  S  S  S  S
||--13p10----------10-13p10-12---------------12----|
||o-------10----10-------------13---------13----13-|
||-----------10-------------------12-9-12----------|
||-------------------------------------------------|
||o------------------------------------------------|
||-------------------------------------------------|
|
|    H                       H
||-------------------------------------------------|
||o------------------------------------------------|
||---7---------------------------------------------|
||---7-----------------------7---------------------|
||o--5-----------------------4---------------------|
||-------------------------------------------------|


  C5                     Bb5
   S  S  S S  S  S  S  S  S  S  S  S  S  S  S  S
|-12---------------12----10----------------10-----|
|----13---------13----13----11----------11----11--|
|-------12-9-12----------------10----10-----------|
|---------------------------------12--------------|
|-------------------------------------------------|
|-------------------------------------------------|
|
|  H                      H
|-------------------------------------------------|
|-------------------------------------------------|
|--5----------------------------------------------|
|--5----------------------5-----------------------|
|--3----------------------2-----------------------|
|-------------------------------------------------|


  Bb5                     F5
   S  S  S  S  S  S  S  S  S  S  S  S  S  S  S  S
|-10----------------10----------------------------|
|----11----------11----11-13p10----------10-13p10-|
|-------10----10----------------10----10----------|
|----------12----------------------10-------------|
|-------------------------------------------------|
|-------------------------------------------------|
|
|  H                       H
|-------------------------------------------------|
|-------------------------------------------------|
|--3----------------------------------------------|
|--3-----------------------3----------------------|
|--1-----------------------3----------------------|
|--------------------------3----------------------|


 1.
  A5
                                           ~~
  S  S S  S  S  S  S  S  S  S  S  S  S  S  E
|-9---------12----------15p12-------18---------||
|---10---10----14----14-------14S17----20p17--o||
|------9----------12---------------------------||
|----------------------------------------------||
|---------------------------------------------o||
|----------------------------------------------||
|
| W
|----------------------------------------------||
|---------------------------------------------o||
|-2--------------------------------------------||
|-2--------------------------------------------||
|-0-------------------------------------------o||
|----------------------------------------------||


  2.
   S S  S  S  S  S S  S S  S S  S S S S  S
|-----------------------------------9------|
|-------------------------11---------------|
|----9----------12-9----9----9----9---9----|
|-11---11----11------11--------11-------11-|
|---------12-------------------------------|
|------------------------------------------|
|
|  W
|------------------------------------------|
|------------------------------------------|
|--2---------------------------------------|
|--2---------------------------------------|
|--0---------------------------------------|
|------------------------------------------|


                                       A5
   S   S  S  S  S  S  S  S  S  S  S  S  Q
|--------------12----------15----------21b23--||
|-14--------------14----14----17----17--------||
|-----12----12-------15----------18-----------||
|--------14-----------------------------------||
|---------------------------------------------||
|---------------------------------------------||
|
|  H.                                   Q
|---------------------------------------------||
|---------------------------------------------||
|--2------------------------------------------||
|--2-----------------------------------14\----||
|--0-----------------------------------12\----||
|---------------------------------------------||


 Guitar Solo - Gus G.
  E5                                                               Bb5  A5 G5
  Gtr III
                          ~~~~~~~                                    ~~~~
   Q.             +E     +H                     S S S S S  S  S  S   H
|---------------------------------------------|--------------------------------|
|-15b17==========(15)r==(15)b17---------------|--------------------------------|
|---------------------------------------------|-7S9-9-9-9S12-12-12-[14]--------|
|---------------------------------------------|--------------------------------|
|---------------------------------------------|--------------------------------|
|---------------------------------------------|--------------------------------|
|
|        PM-----------------------------------------------------|
|  E     S S S S   S  S   S     S S S S S S S   S S S S S  S  S  S   E. E. E
|---------------------------------------------|--------------------------------|
|---------------------------------------------|--------------------------------|
|---------------------------------------------|--------------------------------|
|---------------------------------------------|----------------------3--2------|
|--2------------------------------------------|----------------------1--0--5---|
|--2-----2-2-2-2---2--2---2-----2-2-2-2-2-2-2-|-2-2-2-2-2--2--2--2---------5---|


  E5
   |-------6--------|  |--------6---------|  |--------6---------|  |--------6---------|
   S  S  S  S  S    S  S  S    S  S  S    S  S  S    S  S  S    S  S  S    S  S  S    S
|----------------------------------------------------------------------------14---------|
|------------------------------------------------------15------------15---17----17p==15-|
|-----------------------------14h16p14------14h16h==17----17p==16-17--------------------|
|----14h16-17p16p==14h16-17--------------17---------------------------------------------|
|-17------------------------------------------------------------------------------------|
|---------------------------------------------------------------------------------------|
|
| Gtr II
|  |-------6--------|  |--------6---------|  |--------6---------|  |--------6---------|
|  S  S  S  S  S    S  S  S    S  S  S    S  S  S    S  S  S    S  S  S    S  S  S    S
|------------------------------------------------------14------------14h==15h17-15p==14-|
|-----------------------------13h15p13------13h15h==17----17p==15-17--------------------|
|----12h14-16p14p==12h14-16--------------16---------------------------------------------|
|-16------------------------------------------------------------------------------------|
|---------------------------------------------------------------------------------------|
|---------------------------------------------------------------------------------------|
|
| Gtr I
|           PM---------------------------------------------------------------------------
|  E        S    S     S    S     S    S     S    S     S    S     S    S     S    S
|---------------------------------------------------------------------------------------|
|---------------------------------------------------------------------------------------|
|---------------------------------------------------------------------------------------|
|---------------------------------------------------------------------------------------|
|--2------------------------------------------------------------------------------------|
|--2--------2----2-----2----2-----2----2-----2----2-----2----2-----2----2-----2----2----|


                                              A5              Bb5     B5
                                                                   ~~~~
   |--------6---------|  |--------6---------|  |-----6------|
   S  S    S  S  S    S  S  S    S  S  S    S  S   S  S  S  E     +Q
|--------------------------------------------------------------------------|
|-17p15------15--------------------15--------------------------------------|
|---------17----17---16-14-16---17----17p==16p14---------------------------|
|-------------------------------------------------17p16p14-----------------|
|----------------------------------------------------------17----(17)------|
|--------------------------------------------------------------------------|
|
|                                                                  ~~~~
|  |--------6---------|  |--------6---------|  |-----6------|
|  S  S    S  S  S    S  S  S    S  S  S    S  S   S  S  S  E     +Q
|-17p14------14--------------------14--------------------------------------|
|---------17----17---15-13-15---17----17p==15p13---------------------------|
|-------------------------------------------------16p14p12-----------------|
|----------------------------------------------------------16----(16)------|
|--------------------------------------------------------------------------|
|--------------------------------------------------------------------------|
|
|----------------------------------------|
|  S    S     S    S     S    S     S    S     E.             E.      E
|--------------------------------------------------------------------------|
|--------------------------------------------------------------------------|
|--------------------------------------------------------------------------|
|----------------------------------------------2--------------3-------4----|
|----------------------------------------------0--------------1-------2----|
|--2----2-----2----2-----2----2-----2----2---------------------------------|


  E5
                          ~~~~~~~
   Q.             +E     +H
|---------------------------------------------|
|-15b17==========(15)r==(15)b17---------------|
|---------------------------------------------|
|---------------------------------------------|
|---------------------------------------------|
|---------------------------------------------|
|
|                         ~~~~~~~
|  Q.             +E     +H
|---------------------------------------------|
|-10b12==========(10)r==(10)b12---------------|
|---------------------------------------------|
|---------------------------------------------|
|---------------------------------------------|
|---------------------------------------------|
|
|        PM------------------------------------
|  E     S S S S   S  S   S     S S S S S S S
|---------------------------------------------|
|---------------------------------------------|
|---------------------------------------------|
|---------------------------------------------|
|--2------------------------------------------|
|--2-----2-2-2-2---2--2---2-----2-2-2-2-2-2-2-|


                         Bb5 A5 G5
                          ~~~
   Q.              +E     H
|------------------------15---------|
|-15b17r==========(15)--------------|
|-----------------------------------|
|-----------------------------------|
|-----------------------------------|
|-----------------------------------|
|
|                         ~~~
|  Q.              +E     H
|------------------------10---------|
|-10b12r==========(10)--------------|
|-----------------------------------|
|-----------------------------------|
|-----------------------------------|
|-----------------------------------|
|
|----------------------|
|  S    S S S S S   S  S  E. E. E
|-----------------------------------|
|-----------------------------------|
|-----------------------------------|
|-------------------------3--2------|
|-------------------------1--0--5---|
|--2----2-2-2-2-2---2--2--------5---|


  E5
   S  S  S  S  S  S  S  S  S  S  S  S  S  S  S  S
|-------------------------------------------------|
|----15----------------12-------------------------|
|-16----16-15-16-15-14----14-12-11-12-14-12-11-12-|
|-------------------------------------------------|
|-------------------------------------------------|
|-------------------------------------------------|
|
| Gtr I
|        PM----------------------------------------
|  E     S  S  S  S  S  S  S  S  S  S  S  S  S  S
|-------------------------------------------------|
|-------------------------------------------------|
|-------------------------------------------------|
|-------------------------------------------------|
|--2----------------------------------------------|
|--2-----2--2--2--2--2--2--2--2--2--2--2--2--2--2-|


                          A5        Bb5       B5
   S  S  S  S  S  S  S  S  S   S  S  S   S  S  S  S
|---------------------------------------------------|
|---------------------------------------------------|
|----12-------------------12------------------------|
|-14----14-12-14-12----12-----14-12-14--12----------|
|-------------------14---------------------14-13-12-|
|---------------------------------------------------|
|
|----------------------|
|  S  S  S  S  S  S  S  S  E.        E.        E
|---------------------------------------------------|
|---------------------------------------------------|
|---------------------------------------------------|
|--------------------------2---------3---------4----|
|--------------------------0---------1---------2----|
|--2--2--2--2--2--2--2--2---------------------------|


  N.C.
   S  S  T  T  S  S  T  T  S  S  T  T  S  S  T  T  S  S  T  T  S
|----------------------------------------------------------------|
|----17-15p12----17-15p12----17-15p12----17-15p12----17-15p12----|
|-14----------14----------14----------14----------14----------14-|
|----------------------------------------------------------------|
|----------------------------------------------------------------|
|----------------------------------------------------------------|
|
|  PM-------------------------------------------------------------
|  S  S  S     S  S  S     S  S  S     S  S  S     S  S  S     S
|----------------------------------------------------------------|
|----------------------------------------------------------------|
|----------------------------------------------------------------|
|----------------------------------------------------------------|
|--1-----------0-----------------------2-----------------0-------|
|-----2--2--------2--2-----5--2--2--------2--2-----5--2--------2-|


                                                  E5
                                                    ~~~~
   S  T  T  S  S  T  T  S  S  T  T  S  S  T  T  S  +Q
|-------------15----------15----------17-----------------|
|-17-15p12-------17p15-------17p15-------17p15-----------|
|----------14----------16----------16----------16-(16)---|
|--------------------------------------------------------|
|--------------------------------------------------------|
|--------------------------------------------------------|
|
|----------------------------------------------|
|  S  S     S  S  S     S  S  S     S  S  S     S   Q
|--------------------------------------------------------|
|--------------------------------------------------------|
|--------------------------------------------------------|
|--------------------------------------------------------|
|--1-----------0-----------------------0------------2----|
|-----2-----2-----2-----2--5--2-----2-----2-----2---2----|


  N.C.                                    Bb5      C5
   \4__________________/
   H                  +H                   H        H
|---------------------------------------|----------15\----||
|---------------------------------------|-15b17-----------||
|-16-----------------(16)---------------|-----------------||
|---------------------------------------|-----------------||
|---------------------------------------|-----------------||
|---------------------------------------|-----------------||
|
|  PM---------------------------------|
|  S   S S S S S S S   S  S S S S S S S    H        H
|---------------------------------------|-----------------||
|---------------------------------------|-----------------||
|---------------------------------------|--3--------5-----||
|---------------------------------------|--3--------5-----||
|--1-------0--------------2---------0---|--1--------3-----||
|------2-2---2-2-5-2---2----2-2-5-2---2-|-----------------||


   Chorus
    D5         C5         D5         Bb5  C5
    Gtrs I, II
    W          W          W          H    H
||-----------|----------|----------|-----------|
||o----------|----------|----------|-----------|
||--7--------|-5--------|-7--------|-3----5----|
||--7--------|-5--------|-7--------|-3----5----|
||o-5--------|-3--------|-5--------|-1----3----|
||-----------|----------|----------|-----------|


  1.
  D5         C5         D5         F5   C5
  W          W          W          H    H
|----------|----------|----------|------------||
|----------|----------|----------|-----------o||
|-7--------|-5--------|-7--------|------5-----||
|-7--------|-5--------|-7--------|-3----5-----||
|-5--------|-3--------|-5--------|-3----3----o||
|----------|----------|----------|-3----------||


  2.
  D5         C5         D5         F5   A5
  W          W          W          H    H
|----------|----------|----------|-----------||
|----------|----------|----------|-----------||
|-7--------|-5--------|-7--------|------2----||
|-7--------|-5--------|-7--------|-3----2----||
|-5--------|-3--------|-5--------|-3----0----||
|----------|----------|----------|-3---------||


   Outro
    D5
    Gtr I
    E S S S  S S S S S S S S S S S   S S S S S S S S S S S S S S S S
||---------------------------------|---------------------------------|
||o--------------------------------|---------------------------------|
||---------------------------------|---------------------------------|
||--0-3-0-0--5-0-0-7-0-0-8-0-0-5h7-|-0-0-3-0-0-5-0-0-5-3-2-0-3-2-0---|
||o--------------------------------|-------------------------------3-|
||---------------------------------|---------------------------------|
|
|   Gtr II
|   E E   H.                         H               S S S S S S S S
||---------------------------------|---------------------------------|
||o--------------------------------|---------------------------------|
||--7------------------------------|---------------------------------|
||--7------------------------------|-----------------5-3-2-0-3-2-0---|
||o-5------------------------------|-------------------------------3-|
||---------------------------------|---------------------------------|


  1.
  D5
  S  S S S S  S S S S S S S S S S S   S S S S S S S S S S S S S S S S
|-----------------------------------|----------------------------------||
|-----------------------------------|-----------------6-5-------------o||
|-----------------------------------|---------------------7-5----------||
|-0--0-3-0-0--5-0-0-7-0-0-8-0-0-5h7-|-0-0-3-0-0-5-0-0---------8-5-7----||
|-----------------------------------|-------------------------------8-o||
|-----------------------------------|----------------------------------||
|
| E    E   H.                         H               S S S S S S S S
|-----------------------------------|----------------------------------||
|-----------------------------------|---------------------------------o||
|-7\--------------------------------|----------------------------------||
|-7\--------------------------------|-----------------5-3-2-0-3-2-0----||
|-5\--------------------------------|-------------------------------3-o||
|-----------------------------------|----------------------------------||


  2.
  D5                                                  N.C.
                                                                        ~
  S  S S S S  S S S S S S S S S S S   S S S S S S S S S S S S S S S S   W
|-----------------------------------|---------------------------------|------*|
|-----------------------------------|-----------------6-5-------------|------*|
|-----------------------------------|---------------------7-5---------|------*|
|-0--0-3-0-0--5-0-0-7-0-0-8-0-0-5h7-|-0-0-3-0-0-5-0-0---------8-5-7---|------*|
|-----------------------------------|-------------------------------8-|-8----*|
|-----------------------------------|---------------------------------|------*|
|
|                                                                       ~
| E    E   H.                         H               S S S S S S S S   W
|-----------------------------------|---------------------------------|------*|
|-----------------------------------|---------------------------------|------*|
|-7\--------------------------------|---------------------------------|------*|
|-7\--------------------------------|-----------------5-3-2-0-3-2-0---|------*|
|-5\--------------------------------|-------------------------------3-|-5----*|
|-----------------------------------|---------------------------------|------*|



Duration Legend
---------------
W - whole; H - half; Q - quarter; E - 8th; S - 16th; T - 32nd; X - 64th; a - acciaccatura
+ - note tied to previous; . - note dotted; .. - note double dotted
Uncapitalized letters represent notes that are staccato (1/2 duration)
Irregular groupings are notated above the duration line
Duration letters will always appear directly above the note/fret number it represents the
duration for.  Duration letters with no fret number below them represent rests.  Multi-
bar rests are notated in the form Wxn, where n is the number of bars to rest for.  Low
melody durations appear below the staff

Tablature Legend
----------------
 h   - hammer-on
 p   - pull-off
 b   - bend
 pb  - pre-bend
 r   - bend release (if no number after the r, then release immediately)
 /\  - slide into or out of (from/to "nowhere")
 s   - legato slide
 S   - shift slide
 - natural harmonic
[n]  - artificial harmonic
n(n) - tapped harmonic
 ~   - vibrato
 tr  - trill
 T   - tap
 TP  - trem. picking
 PM  - palm muting
\n/  - tremolo bar dip; n = amount to dip
 \n  - tremolo bar down
 n/  - tremolo bar up
/n\  - tremolo bar inverted dip
 =   - hold bend; also acts as connecting device for hammers/pulls
 <> - volume swell (louder/softer)
 x   - on rhythm slash represents muted slash
 o   - on rhythm slash represents single note slash

Misc Legend
-----------
 |  - bar
||  - double bar
||o - repeat start
o|| - repeat end
*|  - double bar (ending)
 :  - bar (freetime)
 $  - Segno
 &  - Coda
Tempo markers -  = BPM(8/16=s8/s16), where s8 = swing 8ths, s16 = swing 16ths


            
            
Suggest correction
Creating personal tab
Creating personal tab
You can edit any tab online and save it as your Personal.

You can edit, replace or remove any tab part or add personal notes – all changes will be seen only by you.

Personal tabs can be accessed anytime from any device, even offline.
Learn more »
Give kudos to tab author, rate the tab!
1 2 3 4 5
comments
print report bad tab
guest
You may want to rate the tab now too:
select rating
Wanna post a correction for this tab? Suggest correction