Oops, an error
Loading. Please wait.

Another Day tab

version 3
version 3
10,167 views 1 this week
1 commentread comment
1 2 3 4 5
x 6
add to favorites
×
Save as Personal and add changes to this tab that will be seen only by you. Learn more ›
×
You can save this tab as Personal to edit and correct it or add notes. All changes will be seen only by you. Learn more »
launch autoscroll
font size
0
reset
how to read this tab
guitar tuner
backing track
0:00
0:00
edit
Autoscroll
slow
fast
+/-
esc
set tempo
stop
Author
Difficulty
Gtr I (E A D G B E) - 'Acoustic'
Gtr II (E A D G B E) - 'Lead'
Gtr III (E A D G B E) - 'Sax'
Gtr IV (E A D G B E) - 'Lead'


   Intro
    Slowly Q=70
   4/4
    Gtr I
    E. S +S  E S +E  E Q     E. S +S  E S +E  E E E
||-------------------------|-------------------------||
||o-0----------0-(0)-------|-0----------0-(0)-------o||
||-----3-(3)---------3-----|----3-(3)---------3-3----||
||-----------4---------4---|----------4-----------4--||
||o------------------------|------------4-(4)-------o||
||--4----(4)---2-(2)-----2-|-0----(0)-----------2----||
    Q    +E.   S +Q.     E   Q    +E.   S +Q    Q


 Intro-Solo
  G#m           F#      E              CF#
 4/4
  Gtr II
            ~~~~~~~~~~~~~~~~
   Q   E  S Q..   +E    +Q    S S S E.   S E. S  S
|---------------------|----------------------------|
|-12--11--------------|----------------------------|
|--------13-8-----(8)-|-(8)-------8-6--------------|
|---------------------|------/6-9--------9-8--9-11-|
|---------------------|----------------------------|
|---------------------|----------------------------|


  G#m       F#          C#             E
                       6/4
  ~~~~~~~   ~
  Q  +E   E Q  S S  E    Q   +E   S  S   W
|---------------------|------------------------|
|---------------------|----------11-12-[14]----|
|------------------11-|-13--(13)---------------|
|-9--(9)-11-8--8S9----|------------------------|
|---------------------|------------------------|
|---------------------|------------------------|


 1 st Verse
  G#m   G#m+5   G#m   F#sF#4  E     B       A     F#sF#4
 4/4
                                          Gtr II
                                                  <  <
  Q  Q  Q  Q    Q  Q  Q  Q    Q  Q  Q  Q    Q  Q  Q  Q
|-------------|-------------|-------------|--------------|
|-------------|-------------|-------------|--------------|
|-------------|-------------|-------------|-------4--6---|
|-------------|-------------|-------------|--------------|
|-------------|-------------|-------------|--------------|
|-------------|-------------|-------------|--------------|


  G#m  G#m+5  G#m  F#sF#4    E    B      A    E
  <    <      <    <         <    <      <    <
  H    H      H    Q  +Q     H    H      H    H
|-----------|--------------|-----------|-----------|
|-----------|--------------|------7----|-5---------|
|-8----9----|-8----6--(6)--|-4---------|------4----|
|-----------|--------------|-----------|-----------|
|-----------|--------------|-----------|-----------|
|-----------|--------------|-----------|-----------|


 Chorus
  Wx4
|--------|
|--------|
|--------|
|--------|
|--------|
|--------|


 Sax-Solo
  G#m              F#            E                C#       F#
  Gtr III
   Q      E  S Q..         +E    +Q      S S S E.     S E.   S  S
|------------------------------|----------------------------------|
|-12-----11--------------------|----------------------------------|
|-----------13-8-----------(8)-|-(8)---------8-6------------------|
|------------------------------|---------6-9----------9-8----9-11-|
|------------------------------|----------------------------------|
|------------------------------|----------------------------------|
|
| Gtr I
|  S S E  E  E     S S E E  E     S  S E E   E    S S E    E E
|------------------------------|----------------------------------|
|---------0--------------0-----|---------0-----------------0------|
|------3-----3---------3----3--|-------3-----3--------3------3----|
|----4---------------4---------|-----4--------------4-------------|
|------------------------------|------------------4---------------|
|--4---------------2-----------|--0-------------------------------|


  G#m          F#             C#              E
                             4/4
  Q     +E   E Q     S S  E    Q    +E   S  S  H
|---------------------------|-----------------14----|
|---------------------------|-----------11-12-------|
|------------------------11-|-13---(13)-------------|
|-9-----(9)-11-8-----8-9----|-----------------------|
|---------------------------|-----------------------|
|---------------------------|-----------------------|
|
| S S E  E   E S S E E    E    E E   E   E     H
|---------------------------|------------------0----|
|--------0-----------0------|------------0----------|
|-----3------3-----3------3-|--------6--------------|
|---4------------4----------|----6------------------|
|---------------------------|-----------------------|
|-4------------2------------|--0--------------------|


 2nd Verse
  G#m           G#m+5      G#m             F#sus4    F#
 4/4
  Gtr I
  S S S S +S  E S +H       S S S S +S  E S +S  S S S S S S S
|------------------------|-------4-(4)-----------------------|
|-------------4-5-(5)----|-------------4-------4-------------|
|-------4-(4)---4-(4)----|-----------------------4---------3-|
|-----8---------2-(2)----|-----6---------4-(4)-----4-----4---|
|---6-----------4-(4)----|---6-----------2-(2)---------4-----|
|-4----------------------|-4-------------------------2-------|


  E                 B                     A            F#sus4       F#
    |-3-|
  S T T T E +S  S S S S S S S +S  S S S   Q   +E  E    +Q            Q
|---------0-(0)-------------0-(0)-------|-0---(0)-0----(0)----------(0)----|
|-------7-------7-------------------0---|-0---(0)-0----(0)----------(0)----|
|-----9-----------9-------8-------8---8-|-6---(6)-3----(3)----------(3)----|
|---9-------------------9---------------|-7---(7)-4----(4)----------(4)----|
|---------------------9-----------------|-7---(7)-4----(4)----------(4)----|
|-0-----------------7-------------------|-5---(5)-2----(2)-----------0-----|
|
| Gtr III
| W                                       Q.      S  S  S   S  S  S  E.  S
|---------------------------------------|-----------19-19------------------|
|---------------------------------------|------------------19-19-17-17--16-|
|---------------------------------------|----------------------------------|
|---------------------------------------|----------------------------------|
|---------------------------------------|----------------------------------|
|---------------------------------------|----------------------------------|


  G#m            G#m+5      G#m             F#sus4    F#
   S S S S +S  E S +H       S S S S +S  E S +S  S S S S S S S
|-------------------------|-------4-(4)------------------------|
|--------------4-5-(5)----|-------------4-------4--------------|
|--------4-(4)---4-(4)----|-----------------------4---------3--|
|------8---------2-(2)----|-----6---------4-(4)-----4-----4----|
|----6-----------4-(4)----|---6-----------2-(2)---------4------|
|--4----------------------|-4-------------------------2--------|
|
|  W                        W
|-------------------------|------------------------------------|
|-------------------------|------------------------------------|
|-16----------------------|------------------------------------|
|-------------------------|------------------------------------|
|-------------------------|------------------------------------|
|-------------------------|------------------------------------|


  E                 B                     A    E
    |-3-|
  S T T T E +S  S S S S S S S +S  S S S   H    H
|---------0-(0)-------------0-(0)-------|-0----0----|
|-------7-------7-------------------0---|-2----0----|
|-----9-----------9-------8-------8---8-|-2----1----|
|---9-------------------9---------------|-2----2----|
|---------------------9-----------------|-0----2----|
|-0-----------------7-------------------|------0----|


 Chorus
  Cm7             Badd11/Eb         E5              Badd11
  S S S S S S S S S S S S S S S S   S S S S S S S S S S S S S S S S
|-----------0---------------0-----|-----------0-----------0---------|
|-------0-----0---------0-----0---|-------0-----0-----------0-------|
|-----6---------6-----8---------8-|-----9---------9-----------8-----|
|---6-----6---------9-----9-------|---9-----9-----------9-------9---|
|-4---------------6---------------|-7-----------------9-----------9-|
|---------------------------------|-----------------7---------------|


  Cm7             Badd11/Eb         E5              N.C.
                                                    ~
                                                    |-3-| |----6----|
  S S S S S S S S S S S S S S S S   S S S S S S S S Q S S S S S S S S
|-----------0---------------0-----|-----------0------------------------|
|-------0-----0---------0-----0---|-------0-----0----------------------|
|-----6---------6-----8---------8-|-----9---------9--------------------|
|---6-----6---------9-----9-------|---9-----9-------4------------------|
|-4---------------6---------------|-7-----------------7-6-4------------|
|---------------------------------|-------------------------7-6-4-2-0--|
|
| Gtr II
|                                                   ~
|                                                   |-3-| |----6----|
| W                                 H               Q S S S S S S S S
|---------------------------------|------------------------------------|
|---------------------------------|------------------------------------|
|---------------------------------|------------------------------------|
|---------------------------------|-----------------4------------------|
|---------------------------------|-------------------7-6-4------------|
|---------------------------------|-------------------------7-6-4-2-0--|


   Bridge
    B             A             G#            F#      E
    Gtr I
    Q  Q  Q  Q    Q  Q  Q  Q    Q  Q  Q  Q    E E E E E E E E
||--------0-----|-------0-----|-------0-----|-------0-------0---||
||o----4-----4--|----4-----4--|----4-----4--|-----4-------4----o||
||--4-----------|-2-----------|-6-----------|---4-------4-------||
||--------------|-------------|-------------|-------------------||
||o-------------|-------------|-------------|------------------o||
||--------------|-------------|-------------|-------------------||
|
|   Gtr II
|   W             W             W             H       H
||--------------|-------------|-------------|-------------------||
||o-------------|-------------|-------------|------------------o||
||--4-----------|-2-----------|-------------|-------------------||
||--4-----------|-2-----------|-6-----------|-4-------2---------||
||o-2-----------|-0-----------|-6-----------|-4-------2--------o||
||--------------|-------------|-4-----------|-2-------0---------||


  G               C               D/F#          E       D
  Q  E E Q  E E   Q  E E Q  E E   Q  Q  Q  Q    E E E E E E E E
|---------------|-----------0---|-------------|-----------------|
|--------3------|--------1----1-|-------3--3--|---------------0-|
|------0----2-0-|------0--------|----2--------|-------0-----0---|
|----0----------|----2----------|-0-----------|-----4-----4-----|
|---------------|-3-------------|-------------|---7-----5-------|
|-3-------------|---------------|-------------|-0---------------|
|
| W               W               W             H       H
|---------------|---------------|-------------|-----------------|
|---------------|---------------|-------------|-----------------|
|---------------|-5-------------|-7-----------|---------7-------|
|-5-------------|-5-------------|-7-----------|-2-------7-------|
|-5-------------|-3-------------|-9-----------|-2-------5-------|
|-3-------------|---------------|-------------|-0---------------|


  C                Bsus4B
  E E E E E E Q    H    H
|----------------|-----------|
|-------3--------|-5----4----|
|-----5---5------|-4----4----|
|---5-------5----|-4----4----|
|-3-----------3--|-2----2----|
|----------------|-----------|
|
| W                H    H
|----------------|-----------|
|----------------|-5----4----|
|-5--------------|-4----4----|
|-5--------------|-4----4----|
|-3--------------|-2----2----|
|----------------|-----------|


  N.C.                                  B
 9/8                                   5/4
  Gtr II
  |-3-| |---6---| |-3-| |---6---|           |-3-|
  Q S S S S E S S Q S S S S E S S S S   Q   E E E Q   H
|-------------------------------------|-----------------------|
|-------------------------------------|-----------------------|
|-------------------------------------|-----------------------|
|-------------------------------------|-4---4-4-4-4-----------|
|-----5-7---7-5-------5-7---7-5---5-2-|-4---4-4-4-4-----------|
|-0-7-----------7-0-7-----------7-----|-2---2-2-2-2-----------|
|
| W                                     H.            H
|-------------------------------------|-----------------------|
|-------------------------------------|--------------11b12----|
|-------------------------------------|-----------------------|
|-------------------------------------|-----------------------|
|-------------------------------------|-----------------------|
|-------------------------------------|-----------------------|


 Guitar Solo
  G#m        G#m+5          G#m              F#sus4    F#
 4/4
  Gtr II
   H          H              H                Q        Q
|-------------------------|---------------------------------------|
|-------------------------|---------------------------------------|
|-------------------------|-------------------4--------3----------|
|--6----------6-----------|--6----------------4--------4----------|
|--6----------7-----------|--6----------------4--------4----------|
|--4----------4-----------|--4----------------2--------2----------|
|
| Gtr IV
|             ~~~~~
|  Q.    S S  Q.     S  S    Q      E.  T  T  S  S   Q   T T  T T
|-------------------------|---------------------------------------|
|-12----11-9-11b12---9-12-|-12b14r=12--11-12-11-------------------|
|-------------------------|---------------------11--------------8-|
|-------------------------|------------------------\11---8-9-11---|
|-------------------------|---------------------------------------|
|-------------------------|---------------------------------------|


  E          B
  H          H
|---------------------------|
|---------------------------|
|------------4--------------|
|-2----------4--------------|
|-2----------2--------------|
|-0-------------------------|
|
| ~~~~~~~    ~
| E.  E. E   Q  T T  E T T
|---------------------------|
|----12---------------------|
|-9------8b9r8--8-9-11-9-8--|
|---------------------------|
|---------------------------|
|---------------------------|


  A                       F#sus4                F#
   H                       Q                     Q
|-----------------------------------------------------------------------------------|
|-----------------------------------------------------------------------------------|
|--2-----------------------4---------------------3----------------------------------|
|--2-----------------------4---------------------4----------------------------------|
|--0-----------------------4---------------------4----------------------------------|
|--------------------------2---------------------2----------------------------------|
|
|  ~~
|     |-3-|                    |------6-------|  |------6-------|  |------6-------|
|  S  T T T  S S a  S S E +E   T  T  T  T  T  T  T  T  T  T  T  T  T  T  T  T  T  T
|--------------------------------------------------------------------------16-18-19-|
|-----------------------------------------------------------------16-17-19----------|
|--------------------------------------13-15-16----------15-16-18-------------------|
|-11-11-9-7----7--------------13-14-16----------14-16-18----------------------------|
|-----------11---9s11s9-9-(9)-------------------------------------------------------|
|-----------------------------------------------------------------------------------|


  G#m        G#m+5               G#m        F#sus4 F#
   H          H                   H          Q      Q
|------------------------------|------------------------------|
|------------------------------|------------------------------|
|------------------------------|-------------4------3---------|
|--6----------6----------------|--6----------4------4---------|
|--6----------7----------------|--6----------4------4---------|
|--4----------4----------------|--4----------2------2---------|
|
|             ~~~~~~
|                      |--3--|
|  Q      Q   Q.       S  S  S    Q      Q   E.  S  E  S  S
|-21b23--23--23b24\------19-21-|-21b23--24--21--19-18-19-21---|
|---------------------21-------|------------------------------|
|------------------------------|------------------------------|
|------------------------------|------------------------------|
|------------------------------|------------------------------|
|------------------------------|------------------------------|


  E                                   B
   H                                    H
|---------------------------------------------------------------------------|
|---------------------------------------------------------------------------|
|---------------------------------------4-----------------------------------|
|--2------------------------------------4-----------------------------------|
|--2------------------------------------2-----------------------------------|
|--0------------------------------------------------------------------------|
|
|                                   ~~~~~~~
|     |--3--|        |--3--|                   |--3--|
|  S  T  T  T  S  S  T  T  T  S  S  S  +S   S  T  T  T  S  S  a  S  T  T  S
|-19-16------------------------------------------------------------------19-|
|-------19p16----19-16---------------------------------------------19h21----|
|-------------18-------18p16----18-16-(16)----16----------16-18s20----------|
|----------------------------18------------16----18p16----------------------|
|------------------------------------------------------18-------------------|
|---------------------------------------------------------------------------|


  A                                      B
   H                                     H
|-----------------------------------------------------------------------------------------|
|-----------------------------------------------------------------------------------------|
|--2-------------------------------------4------------------------------------------------|
|--2-------------------------------------4------------------------------------------------|
|--0-------------------------------------2------------------------------------------------|
|-----------------------------------------------------------------------------------------|
|
|  ~~                                                                          T
|                                                 |----6----| |----6----| |-----7------|
|  E  T  T  T  T  T  T  T  T  T  T  T  T T  T T T T T T T T T T T T T T T T T  T T T T T
|-17----21-------19-------16-------14------11-----9---------------------------------------|
|----19----19s17----17s14----14s12----12s9----9s7---7h9p7s5h7p5s3h5p4h5p0h4h5-12p5p4p0-2--|
|-----------------------------------------------------------------------------------------|
|-----------------------------------------------------------------------------------------|
|-----------------------------------------------------------------------------------------|
|-----------------------------------------------------------------------------------------|


 Chorus
  Cm7             Badd11/Eb         E5              Badd11
  S S S S S S S S S S S S S S S S   S S S S S S S S S S S S S S S S
|-----------0---------------0-----|-----------0-----------0---------|
|-------0-----0---------0-----0---|-------0-----0-----------0-------|
|-----6---------6-----8---------8-|-----9---------9-----------8-----|
|---6-----6---------9-----9-------|---9-----9-----------9-------9---|
|-4---------------6---------------|-7-----------------9-----------9-|
|---------------------------------|-----------------7---------------|
|
| W                                 W
|---------------------------------|---------------------------------|
|---------------------------------|---------------------------------|
|-6-------------------------------|---------------------------------|
|---------------------------------|---------------------------------|
|---------------------------------|---------------------------------|
|---------------------------------|---------------------------------|


  Cm7             Badd11/Eb         E5              F#add11
  S S S S S S S S S S S S S S S S   S S S S S S S S H      +W
|-----------0---------------0-----|-----------0----------|--------|
|-------0-----0---------0-----0---|-------0-----0---0----|-(0)----|
|-----6---------6-----8---------8-|-----9---------9-3----|-(3)----|
|---6-----6---------9-----9-------|---9-----9-------4----|-(4)----|
|-4---------------6---------------|-7---------------4----|-(4)----|
|---------------------------------|-----------------2----|-(2)----|


   Outro/Sax-solo
    Gtr I
    E. S +S  E S +E  E Q     E. S +S  E S +E  E E E  8x
||-------------------------|-------------------------||
||o-0----------0-(0)-------|-0----------0-(0)-------o||
||-----3-(3)---------3-----|----3-(3)---------3-3----||
||-----------4---------4---|----------4-----------4--||
||o------------------------|------------4-(4)-------o||
||--4----(4)---2-(2)-----2-|-0----(0)-----------2----||
    Q    +E.   S +Q.     E   Q    +E.   S +Q    Q




--------------------------------------------------------------------------------


Duration Legend
---------------
W - whole; H - half; Q - quarter; E - 8th; S - 16th; T - 32nd; X - 64th; a - acciaccatura
+ - note tied to previous; . - note dotted; .. - note double dotted
Uncapitalized letters represent notes that are staccato (1/2 duration)
Irregular groupings are notated above the duration line
Duration letters will always appear directly above the note/fret number it represents the
duration for.  Duration letters with no fret number below them represent rests.  Multi-
bar rests are notated in the form Wxn, where n is the number of bars to rest for.  Low
melody durations appear below the staff

Tablature Legend
----------------
 h   - hammer-on
 p   - pull-off
 b   - bend
 pb  - pre-bend
 r   - bend release (if no number after the r, then release immediately)
 /\  - slide into or out of (from/to "nowhere")
 s   - legato slide
 S   - shift slide
 - natural harmonic
[n]  - artificial harmonic
n(n) - tapped harmonic
 ~   - vibrato
 tr  - trill
 T   - tap
 TP  - trem. picking
 PM  - palm muting
\n/  - tremolo bar dip; n = amount to dip
 \n  - tremolo bar down
 n/  - tremolo bar up
/n\  - tremolo bar inverted dip
 =   - hold bend; also acts as connecting device for hammers/pulls
 <> - volume swell (louder/softer)
 x   - on rhythm slash represents muted slash
 o   - on rhythm slash represents single note slash

Misc Legend
-----------
 |  - bar
||  - double bar
||o - repeat start
o|| - repeat end
*|  - double bar (ending)
 :  - bar (freetime)
 $  - Segno
 &  - Coda
Tempo markers -  = BPM(8/16=s8/s16), where s8 = swing 8ths, s16 = swing 16ths



            
            
Suggest correction
Creating personal tab
Creating personal tab
You can edit any tab online and save it as your Personal.

You can edit, replace or remove any tab part or add personal notes – all changes will be seen only by you.

Personal tabs can be accessed anytime from any device, even offline.
Learn more »
comments
print report bad tab
1 comment total.
0 reply
spencer Cr 507 May 07, 2007 10:41 AM

sick the power tab version this should be right

guest
You may want to rate the tab now too:
select rating
Wanna post a correction for this tab? Suggest correction