Oops, an error
Loading. Please wait.

Build Me Up Break Me Down tab

version 1
version 1

Whole song

Interactive

862 views 9 this week
no commentswrite comment
1 2 3 4 5
3 more votes to show rating
add to favorites
×
Save as Personal and add changes to this tab that will be seen only by you. Learn more ›
×
You can save this tab as Personal to edit and correct it or add notes. All changes will be seen only by you. Learn more »
launch autoscroll
font size
0
reset
how to read this tab
guitar tuner
backing track
0:00
0:00
edit
Autoscroll
slow
fast
+/-
esc
set tempo
stop
Author
Difficulty
Build Me Up and Break Me Down - Dream Theater
Tuning - 7 String Standard (B,E,A,D,G,B,E)
        

[Intro]

    s s s s s s s s (h)        s s s s s s s s s s s s (q)     s s s s s s s s (h)
E||--------------------------|-------------------------------|---------------------------|
B||--------------------------|-------------------------------|---------------------------|
G||--------------------------|-------------------------------|---------------------------|
D||--------------------------|-------------------------------|---------------------------|
A||--------------------------|-------------------------------|---------------------------|
E||-------4------------------|-------4-------4---5---3-------|-------4-------------------|
B||-2-0-2---3-2-0-2----------|-2-0-2---3-2-0---2---2---------|-2-0-2---3-2-0-2-----------|
                  .                                  .                       .

   s s s s s s s s s s s s s s (e)    s s s s s s s s s s s s s s s s   s s s s s s s s s s s s (q)
E|----------------------------------|---------------------------------|-----------------------------||
B|----------------------------------|---------------------------------|-----------------------------||
G|----------------------------------|---------------------------------|-----------------------------||
D|----------------------------------|---------------------------------|-----------------------------||
A|----------------------------------|---------------------------------|-----------------------------||
E|-------4-------4---5---3----------|-------4-------4---5---3---------|-------4-------4---5---3-----||
B|-2-0-2---3-2-0---2---2---2-0------|-2-0-2---3-2-0---2---2---5-0-2-3-|-2-0-2---3-2-0---2---2-------||
                             .                                                                .

[Pre-Verse]

   4/4                               3/4           4/4
    s s s s s s s s s s s s s s s s   e. e. e. e.   s s s s s s s s s s s s s s s s
E||---------------------------------|-------------|---------------------------------|
B||---------------------------------|-------------|---------------------------------|
G||---------------------------------|-------------|---------------------------------|
D||---------------------------------|----------5--|---------------------------------|
A||---------------------------------|-4--2--7--5--|---------------------------------|
E||-------4-------4---5---3---------|-4--2--7--3--|-------4-------4---5---3---------|
B||-2-0-2---3-2-0---2---2---5-0-2-3-|-2--0--5-----|-2-0-2---3-2-0---2---2---5-0-2-3-|


   e. e. e. e. q     s s s s s s s s s s s s s s s s   s s s s s s s s s s s s  q
E|-----------------|---------------------------------|-------------------------------------|
B|-----------------|---------------------------------|-------------------------------------|
G|-----------------|---------------------------------|-------------------------------------|
D|-------3---------|---------------------------------|-------------------------------------|
A|-4--2--3--2--5---|-------4-------4---5-------------|-2-4-------5-2-----------------------|
E|-4--2--1--2--5---|-----------------------------1-4-|-----3---------3-4-1-----------------|
B|-2--0-----0--3---|-2-0-2---3-2-0---2---2-0-2-3-----|-------5-2-----------3-0-<3>---|


   s s s s s s s s s s s s s s s s   e. e. e. e. q
E|---------------------------------|------------------||
B|---------------------------------|------------------||
G|---------------------------------|------------------||
D|---------------------------------|-------7--9--6----||
A|---------------------------------|-4--2--7--9--6----||
E|-------4-------4---5---3---------|-4--2--5--7--4----||
B|-2-0-2---3-2-0---2---2---5-0-2-3-|-2--0-------------||


[Verse 1]

    s s s s s s s s s s s s s s (e)  s s s s s s s s s s s s s s (e)  s s s s s s s s s s s s s s (e)
E||--------------------------------|--------------------------------|--------------------------------|
B||--------------------------------|--------------------------------|--------------------------------|
G||--------------------------------|--------------------------------|--------------------------------|
D||--------------------------------|--------------------------------|--------------------------------|
A||--------------------------------|---------4-----------2----------|--------------------------------|
E||---------4-----------2----------|--------------------------------|---------4-----------2----------|
B||-2-0-2-3---3-2-0-2-3---3-2-0----|-2-0-2-3---3-2-0-2-3---3-2-0----|-2-0-2-3---3-2-0-2-3---3-2-0----|
                              .                                .                                .

  3/4       4/4
    q.  q.    s s s s s s s s s s s s s s (e)  s s s s s s s s s s s s s s (e)
E|---------|--------------------------------|--------------------------------|
B|---------|--------------------------------|--------------------------------|
G|---------|--------------------------------|--------------------------------|
D|---------|--------------------------------|--------------------------------|
A|-5---2---|--------------------------------|---------4-----------2----------|
E|-5---2---|---------4-----------2----------|--------------------------------|
B|-3---0---|-2-0-2-3---3-2-0-2-3---3-2-0----|-2-0-2-3---3-2-0-2-3---3-2-0----|
                                       .                                .

   s s s s s s s s s s s s s s (e)  q.   q.   q     s s s s s s s s s s s s s s s s 
E|--------------------------------|---------------|---------------------------------|
B|--------------------------------|---------------|---------------------------------|
G|--------------------------------|---------------|---------------------------------|
D|--------------------------------|---------------|---------------------------------|
A|--------------------------------|-5----2----5---|---------------------------------|
E|---------4-----------2----------|-5----2----5---|---------4-----------2-----------|
B|-2-0-2-3---3-2-0-2-3---3-2-0----|-3----0----3---|-2-0-2-3---3-2-0-2-3---3-2-0-2-3-|
                             .      

   s s s s s s s s s s s s s s s s   s s s s s s s s s s s s s s s s
E|---------------------------------|---------------------------------|
B|---------------------------------|---------------------------------|
G|---------------------------------|---------------------------------|
D|---------------------------------|---------------------------------|
A|---------4-----------2-----------|---------------------------------|
E|---------------------------------|---------4-----------2-----------|
B|-2-0-2-3---3-2-0-2-3---3-2-0-2-3-|-2-0-2-3---3-2-0-2-3---3-2-0-2-3-|


   s s s s s s s s s s s s s s s s    
E|---------------------------------||
B|---------------------------------||
G|---------------------------------||
D|---------------------------------||
A|-5-----4-2-----------------------||
E|-------------5-4---2-1---------4-||
B|---3-6-----0-----0-----0-2-3-2---||


[Chorus]

    w        w         w        h.      q     w       w       w        h     e   q.
E||--------|---------|--------|-------------|-------|-------|--------|---------------||
B||--------|---------|--------|-------------|-------|-------|--------|---------------||
G||--------|---------|--------|-------------|-------|-------|--------|---------------||
D||-4------|-7-------|--------|-------------|-4-----|-7-----|--------|---------------||
A||-4------|-7-------|--------|-2-------4---|-4-----|-7-----|-4------|-5----(5)--7---||
E||-2------|-5-------|-4------|-2-------4---|-2-----|-5-----|-4------|-5----(5)--7---||
B||--------|---------|--------|-0-------2---|-------|-------|-2------|-3----(3)--5---||


[Post Chorus]

   3/4
    q   s e   e   s e     q   s e   s s s s s   q   s e   e   s e     s e  e  s s e  e  s
E||---------------------|---------------------|---------------------|---------------------|
B||---------------------|---------------------|---------------------|---------------------|
G||---------------------|---------------------|---------------------|---------------------|
D||-----------------2---|---------------------|-----------------2---|-5-5--5--5-----------|
A||-4---2-4---4---2-2---|-4---2-4-------------|-4---2-4---4---2-2---|-5-5--5--5-5-5--5----|
E||-4---2-4---4---2-0---|-4---2-4-----4-------|-4---2-4---4---2-0---|-3-3--3--3-5-5--5----|
B||-2---0-2---2---0-----|-2---0-2---2---5-2-0-|-2---0-2---2---0-----|-----------3-3--3--0-|

                                                                    4/4
    q   s e   e   s e     q   s e   s s s s s   q   s e   e   s e     s e  e  s s e  e  s e  e  
E|---------------------|---------------------|---------------------|---------------------------||
B|---------------------|---------------------|---------------------|---------------------------||
G|---------------------|---------------------|---------------------|---------------------------||
D|-----------------2---|---------------------|-----------------2---|-5-5--5--5-----------------||
A|-4---2-4---4---2-2---|-4---2-4-------------|-4---2-4---4---2-2---|-5-5--5--5-5-5--5----2--2--||
E|-4---2-4---4---2-0---|-4---2-4-----4-------|-4---2-4---4---2-0---|-3-3--3--3-5-5--5----2--2--||
B|-2---0-2---2---0-----|-2---0-2---2---5-2-0-|-2---0-2---2---0-----|-----------3-3--3--0-0--0--||


[Pre-Verse]

   4/4                               3/4           4/4
    s s s s s s s s s s s s s s s s   e. e. e. e.   s s s s s s s s s s s s s s s s
E||---------------------------------|-------------|---------------------------------|
B||---------------------------------|-------------|---------------------------------|
G||---------------------------------|-------------|---------------------------------|
D||---------------------------------|----------5--|---------------------------------|
A||---------------------------------|-4--2--7--5--|---------------------------------|
E||-------4-------4---5---3---------|-4--2--7--3--|-------4-------4---5---3---------|
B||-2-0-2---3-2-0---2---2---5-0-2-3-|-2--0--5-----|-2-0-2---3-2-0---2---2---5-0-2-3-|


   e. e. e. e. q     s s s s s s s s s s s s s s s s   s s s s s s s s s s s s  q
E|-----------------|---------------------------------|-------------------------------------|
B|-----------------|---------------------------------|-------------------------------------|
G|-----------------|---------------------------------|-------------------------------------|
D|-------3---------|---------------------------------|-------------------------------------|
A|-4--2--3--2--5---|-------4-------4---5-------------|-2-4-------5-2-----------------------|
E|-4--2--1--2--5---|-----------------------------1-4-|-----3---------3-4-1-----------------|
B|-2--0-----0--3---|-2-0-2---3-2-0---2---2-0-2-3-----|-------5-2-----------3-0-<3>---|


   s s s s s s s s s s s s s s s s   e. e. e. e. q
E|---------------------------------|------------------||
B|---------------------------------|------------------||
G|---------------------------------|------------------||
D|---------------------------------|-------7--9--6----||
A|---------------------------------|-4--2--7--9--6----||
E|-------4-------4---5---3---------|-4--2--5--7--4----||
B|-2-0-2---3-2-0---2---2---5-0-2-3-|-2--0-------------||


[Verse 2]

    s s s s s s s s s s s s s s (e)  s s s s s s s s s s s s s s (e)  s s s s s s s s s s s s s s (e)
E||--------------------------------|--------------------------------|--------------------------------|
B||--------------------------------|--------------------------------|--------------------------------|
G||--------------------------------|--------------------------------|--------------------------------|
D||--------------------------------|--------------------------------|--------------------------------|
A||--------------------------------|---------4-----------2----------|--------------------------------|
E||---------4-----------2----------|--------------------------------|---------4-----------2----------|
B||-2-0-2-3---3-2-0-2-3---3-2-0----|-2-0-2-3---3-2-0-2-3---3-2-0----|-2-0-2-3---3-2-0-2-3---3-2-0----|
                              .                                .                                .

   s s s s s s s s s s s s s s (e)  s s s (s) s s s (e) s s (e) s (s) s
E|--------------------------------|-------------------------------------|
B|--------------------------------|-------------------------------------|
G|--------------------------------|-------------------------------------|
D|--------------------------------|-------------------------------------|
A|---------4-----------2----------|-------------------------------------|
E|--------------------------------|-----------4---------2---------------|
B|-2-0-2-3---3-2-0-2-3---3-2-0----|-2-0-2-------3-2-------3-----0-----0-|
                             .      x x x     x x x     x x     x     x  

   s s s (s) s s s (e) s s (e) s (s) s   s s s (s) s s s (e) s s (e) s (s) s
E|-------------------------------------|-------------------------------------|
B|-------------------------------------|-------------------------------------|
G|-------------------------------------|-------------------------------------|
D|-------------------------------------|-------------------------------------|
A|-----------4---------2---------------|-------------------------------------|
E|-------------------------------------|-----------4---------2---------------|
B|-2-0-2-------3-2-------3-----0-----0-|-2-0-2-------3-2-------3-----0-----0-|
   x x x     x x x     x x     x     x   x x x     x x x     x x     x     x 

  3/4         4/4
    q.   q.     s s s (s) s s s (e) s s (e) s (s) s   s s s (s) s s s (e) s s (e) s (s) s
E|-----------|-------------------------------------|-------------------------------------|
B|-----------|-------------------------------------|-------------------------------------|
G|-----------|-------------------------------------|-------------------------------------|
D|-----------|-------------------------------------|-------------------------------------|
A|-5----2----|-------------------------------------|-----------4---------2---------------|
E|-5----2----|-----------4---------2---------------|-------------------------------------|
B|-3----0----|-2-0-2-------3-2-------3-----0-----0-|-2-0-2-------3-2-------3-----0-----0-|
               x x x     x x x     x x     x     x   x x x     x x x     x x     x     x



   s s s (s) s s s (e) s s (e) s (s) s   q.   q.   q    s s s s s s s s s s s s s s s s
E|-------------------------------------|--------------|---------------------------------|
B|-------------------------------------|--------------|---------------------------------|
G|-------------------------------------|--------------|---------------------------------|
D|-------------------------------------|--------------|---------------------------------|
A|-------------------------------------|-5----2----5--|---------------------------------|
E|-----------4---------2---------------|-5----2----5--|---------4-----------2-----------|
B|-2-0-2-------3-2-------3-----0-----0-|-3----0----3--|-2-0-2-3---3-2-0-2-3---3-2-0-2-3-|
   x x x     x x x     x x     x     x   


   s s s s s s s s s s s s s s s s   s s s s s s s s s s s s s s s s  
E|---------------------------------|---------------------------------|
B|---------------------------------|---------------------------------|
G|---------------------------------|---------------------------------|
D|---------------------------------|---------------------------------|
A|---------4-----------2-----------|---------------------------------|
E|---------------------------------|---------4-----------2-----------|
B|-2-0-2-3---3-2-0-2-3---3-2-0-2-3-|-2-0-2-3---3-2-0-2-3---3-2-0-2-3-|


   s s s s s s s s s s s s s s s s
E|---------------------------------||
B|---------------------------------||
G|---------------------------------||
D|---------------------------------||
A|-5-----4-2-----------------------||
E|-------------5-4---2-1---------4-||
B|---3-6-----0-----0-----0-2-3-2---||


[Chorus] 

    w        w         w        h.      q     w       w       w        h     e   q.
E||--------|---------|--------|-------------|-------|-------|--------|---------------||
B||--------|---------|--------|-------------|-------|-------|--------|---------------||
G||--------|---------|--------|-------------|-------|-------|--------|---------------||
D||-4------|-7-------|--------|-------------|-4-----|-7-----|--------|---------------||
A||-4------|-7-------|--------|-2-------4---|-4-----|-7-----|-4------|-5----(5)--7---|| x2
E||-2------|-5-------|-4------|-2-------4---|-2-----|-5-----|-4------|-5----(5)--7---||
B||--------|---------|--------|-0-------2---|-------|-------|-2------|-3----(3)--5---||


[Post Chorus]

   3/4
    q   s e   e   s e     q   s e   s s s s s   q   s e   e   s e     s e  e  s s e  e  s
E||---------------------|---------------------|---------------------|---------------------|
B||---------------------|---------------------|---------------------|---------------------|
G||---------------------|---------------------|---------------------|---------------------|
D||-----------------2---|---------------------|-----------------2---|-5-5--5--5-----------|
A||-4---2-4---4---2-2---|-4---2-4-------------|-4---2-4---4---2-2---|-5-5--5--5-5-5--5----|
E||-4---2-4---4---2-0---|-4---2-4-----4-------|-4---2-4---4---2-0---|-3-3--3--3-5-5--5----|
B||-2---0-2---2---0-----|-2---0-2---2---5-2-0-|-2---0-2---2---0-----|-----------3-3--3--0-|

                                                                    4/4
    q   s e   e   s e     q   s e   s s s s s   q   s e   e   s e     s e  e  s s e  e  s e  e  
E|---------------------|---------------------|---------------------|---------------------------||
B|---------------------|---------------------|---------------------|---------------------------||
G|---------------------|---------------------|---------------------|---------------------------||
D|-----------------2---|---------------------|-----------------2---|-5-5--5--5-----------------||
A|-4---2-4---4---2-2---|-4---2-4-------------|-4---2-4---4---2-2---|-5-5--5--5-5-5--5----2--2--||
E|-4---2-4---4---2-0---|-4---2-4-----4-------|-4---2-4---4---2-0---|-3-3--3--3-5-5--5----2--2--||
B|-2---0-2---2---0-----|-2---0-2---2---5-2-0-|-2---0-2---2---0-----|-----------3-3--3--0-0--0--||


[Breakdown]

    s s s s s s s s (h)    s s s s s s s s s s s s (q)    s s s s s s s s (h)
E||----------------------|------------------------------|---------------------|
B||----------------------|------------------------------|---------------------|
G||----------------------|------------------------------|---------------------|
D||----------------------|------------------------------|---------------------|
A||----------------------|------------------------------|---------------------|
E||-------4--------------|-------4-------4---5---3------|-------4-------------|
B||-2-0-2---3-2-0-2------|-2-0-2---3-2-0---2---2--------|-2-0-2---3-2-0-2-----|
                  .                              .                      .

   s s s s s s s s (h)    s s s s s s s s s s s s (q)    s s s s s s s s s s s s (q)
E|----------------------|------------------------------|-------------------------------||
B|----------------------|------------------------------|-------------------------------||
G|----------------------|------------------------------|-------------------------------||
D|----------------------|------------------------------|-------------------------------||
A|----------------------|------------------------------|-------------------------------||
E|-------4--------------|-------4-------4---5---3------|-------4-------4---5---3-------||
B|-2-0-2---3-2-0-2------|-2-0-2---3-2-0---2---2--------|-2-0-2---3-2-0---2---2---------||
                 .                              .                              .

    s s s s s s s s s s s s s s s s   s s s s s s s s s s s s s  e.
E||---------------------------------|-------------------------------||
B||---------------------------------|-------------------------------||
G||---------------------------------|-------------------------------||
D||-------5-------------------------|-------5-----------------------||
A||-4-2-4-5-4-2-4-2-4-5-4-2-4-7-4-2-|-4-2-4-5-4-2-4-2-4-5-4-2-4-/8--|| x4
E||-4-2-4-3-4-2-4-2-4-5-4-2-4-7-4-2-|-4-2-4-3-4-2-4-2-4-5-4-2-4-/8--||
B||-2-0-2---2-0-2-0-2-3-2-0-2-5-2-0-|-2-0-2---2-0-2-0-2-3-2-0-2-/6--||


[Guitar Solo]

   Guitar 1
      w              (q)  q   q   q     h.     q    h.      q    w       +q    q   q   q     h.     q
E||--------------|------------------|-----------|------------|-------|-------------------|-----------|
B||--------------|------------------|-----------|------------|-------|-------------------|-----------|
G||--------------|------------------|-----------|------------|-------|-------------------|-----------|
D||--------------|------------------|-----------|------------|-------|-------------------|-----------|
A||-4------------|------------------|-----------|------------|-------|-------------------|-----------|
E||-4------------|------------------|-2------5--|-4----------|-------|-------------------|-5------2--|
B||-2------------|------4---5---2---|-----------|---------4--|-2-----|-(2)---4---5---2---|-----------|


   h      q  q
E|--------------||
B|--------------||
G|--------------||
D|--------------||
A|--------------||
E|-4------------||
B|--------4--5--||


Guitar 2
                                                     |---3---||---3---|
    s   t  t  s   s   s   s   s   s   s   s   s   s   s  s  s  s  s  s
E||-12--16p12-------------------------------------12--16p12----------12-|
B||-----------14------------------------------14------------14----14----|
G||---------------13----------------------13-------------------13-------|
D||-------------------14--------------14--------------------------------|
A||-----------------------16--11--16------------------------------------|
E||---------------------------------------------------------------------|
B||---------------------------------------------------------------------|


    s   s   s   s   s   s   s   s   s   s   s   s   s   s   s   s
E|-/21--16--------------16--21--16--20--16--17--16------------------|
B|----------17------17------------------------------19--17--16------|
G|--------------18----------------------------------------------18--|
D|------------------------------------------------------------------|
A|------------------------------------------------------------------|
E|------------------------------------------------------------------|
B|------------------------------------------------------------------|

                                                    |---3---||---3---|
   s   s   s   s   s   s   s   s   s   t  t  s   s   s  s  s  s  s  s
E|-------------------------14--17--14--17p14------------------14-17-14-|
B|---------------------16--------------------16------------16----------|
G|-17--14------14--17----------------------------17--14-17-------------|
D|---------16----------------------------------------------------------|
A|---------------------------------------------------------------------|
E|---------------------------------------------------------------------|
B|---------------------------------------------------------------------|


   s   s   s   s   s   s   s   s   s   t  t  s   s   s   s   s   s
E|-20--16--17--16------16--------------------------------------------|
B|-----------------19------17--19--16--17p16-----------------16--19--|
G|-------------------------------------------18--17------17----------|
D|---------------------------------------------------18--------------|
A|-------------------------------------------------------------------|
E|-------------------------------------------------------------------|
B|-------------------------------------------------------------------|


   s  s s s s  s s s s  s s  s  s  s  s  s
E|-12-9------------9-12-9-16----17----16----|
B|------9--------9-----------14----14----14-|
G|--------9----9----------------------------|
D|----------11------------------------------|
A|------------------------------------------|
E|------------------------------------------|
B|------------------------------------------|


   s  s  s  s  s  s  s  s  s  s  s  s  s  s  s  s
E|-21-16----------------------16-21-16----16----16-|
B|-------17----------------17----------17----------|
G|----------18----------18-------------------18----|
D|-------------18----18----------------------------|
A|----------------19-------------------------------|
E|-------------------------------------------------|
B|-------------------------------------------------|

                                      |---3--||---3---|
   s  s  s  s  s  s  s  s  s  s  s  s  s  s  s s  s  s
E|-17-14---------------------------------------------8-|
B|-------16---------------------------------------10---|
G|----------17-14-17----14-------------------8-11------|
D|-------------------16----13-16-10-13----10-----------|
A|-------------------------------------12--------------|
E|-----------------------------------------------------|
B|-----------------------------------------------------|


  |---3--||--3--||---3-||---3--||--3---||---3---||---3---||---3---|
   s  s s s  s s s  s s s s  s  s  s  s  s  s  s  s  s  s  s  s  s
E|-11-8--------8-11-8---8-11-14-16-20-16----------20-23-20----------||
B|------9----9--------9------------------19----19----------21----21-||
G|--------11--------------------------------20----------------20----||
D|------------------------------------------------------------------||
A|------------------------------------------------------------------||
E|------------------------------------------------------------------||
B|------------------------------------------------------------------||


Guitar 3 (Synth)
                                              |--3--||--3--|
    s  t  t s  s  s   s   s   s   s   s  s  s  s  s s s s s
E||-9--12p9---------------------------------9--12p9-------9-|
B||---------9----------------------------9----------9---9---|
G||------------9----------------------9---------------9-----|
D||---------------11--------------11------------------------|
A||-------------------11------11----------------------------|
E||-----------------------12--------------------------------|
B||---------------------------------------------------------|


   s   s   s   s   s   s   s   s   s   s   s   s   s   s   s   s   
E|-16--12--------------12--16--12--17------------------------------|
B|---------14------14------------------16--19--17--16--------------|
G|-------------13--------------------------------------18--17------|
D|-------------------------------------------------------------19--|
A|-----------------------------------------------------------------|
E|-----------------------------------------------------------------|
B|-----------------------------------------------------------------|

                                                    |---3---||---3---|
   s   s   s   s   s   s   s   s   s   t  t  s   s   s  s  s  s  s  s
E|-------------------------11--14--11--14p11------------------11-14-11-|
B|---------------------13--------------------13------------13----------|
G|-14--11------11--14----------------------------14--11-14-------------|
D|---------13----------------------------------------------------------|
A|---------------------------------------------------------------------|
E|---------------------------------------------------------------------|
B|---------------------------------------------------------------------|


   s   s   s   s   s   s   s   s   s   t  t  s   s   s   s   s   s
E|-17--12--14--12------12--------------------------------------------|
B|-----------------16------14--16--13--14p13-----------------13--16--|
G|-------------------------------------------14--13------13----------|
D|---------------------------------------------------13--------------|
A|-------------------------------------------------------------------|
E|-------------------------------------------------------------------|
B|-------------------------------------------------------------------|


   s s s s  s  s  s s s s s  s s  s  s  s   
E|-9------------------9---12---14----12---|
B|---9--------------9---9----9----10----9-|
G|-----9----------9-----------------------|
D|-------11----11-------------------------|
A|----------11----------------------------|
E|----------------------------------------|
B|----------------------------------------|


   s  s  s  s  s  s  s  s  s  s  s  s  s  s  s  s
E|-16-12----------------------12-16-12----12----12-|
B|-------14----------------14----------14----------|
G|----------13----------13-------------------13----|
D|-------------14----14----------------------------|
A|----------------16-------------------------------|
E|-------------------------------------------------|
B|-------------------------------------------------|

                                      |--3-||--3--|
   s  s  s  s  s  s  s  s  s  s  s s  s s s s s s
E|-14-11----------------------------------------5-|
B|-------13-----------------------------------7---|
G|----------14-11-14----11----------------5-8-----|
D|-------------------13----10-13-7-10---7---------|
A|------------------------------------9-----------|
E|------------------------------------------------|
B|------------------------------------------------|


  |---3-||--3-||--3-||--3-||---3---||---3---||---3---|
   s s s s s s s s s s s s  s  s  s  s  s  s  s  s  s 
E|-8-5-------5-8-5-----8-11-14-11----------------------|
B|-----7---7---------9------------13----13----16-13-16-|
G|-------8---------8-----------------13----13----------|
D|-----------------------------------------------------|
A|-----------------------------------------------------|
E|-----------------------------------------------------|
B|-----------------------------------------------------|


[Chorus] 

    w        w         w        h.      q     w       w       w        h     e   q.
E||--------|---------|--------|-------------|-------|-------|--------|---------------||
B||--------|---------|--------|-------------|-------|-------|--------|---------------||
G||--------|---------|--------|-------------|-------|-------|--------|---------------||
D||-4------|-7-------|--------|-------------|-4-----|-7-----|--------|---------------||
A||-4------|-7-------|--------|-2-------4---|-4-----|-7-----|-4------|-5----(5)--7---|| 
E||-2------|-5-------|-4------|-2-------4---|-2-----|-5-----|-4------|-5----(5)--7---||
B||--------|---------|--------|-0-------2---|-------|-------|-2------|-3----(3)--5---||


[Post Chorus]

   3/4
    q   s e   e   s e     q   s e   s s s s s   q   s e   e   s e     s e  e  s s e  e  s
E||---------------------|---------------------|---------------------|---------------------|
B||---------------------|---------------------|---------------------|---------------------|
G||---------------------|---------------------|---------------------|---------------------|
D||-----------------2---|---------------------|-----------------2---|-5-5--5--5-----------|
A||-4---2-4---4---2-2---|-4---2-4-------------|-4---2-4---4---2-2---|-5-5--5--5-5-5--5----|
E||-4---2-4---4---2-0---|-4---2-4-----4-------|-4---2-4---4---2-0---|-3-3--3--3-5-5--5----|
B||-2---0-2---2---0-----|-2---0-2---2---5-2-0-|-2---0-2---2---0-----|-----------3-3--3--0-|

                                                                    4/4
    q   s e   e   s e     q   s e   s s s s s   q   s e   e   s e     s e  e  s s e  e  s e  e  
E|---------------------|---------------------|---------------------|---------------------------||
B|---------------------|---------------------|---------------------|---------------------------||
G|---------------------|---------------------|---------------------|---------------------------||
D|-----------------2---|---------------------|-----------------2---|-5-5--5--5-----------------||
A|-4---2-4---4---2-2---|-4---2-4-------------|-4---2-4---4---2-2---|-5-5--5--5-5-5--5----2--2--||
E|-4---2-4---4---2-0---|-4---2-4-----4-------|-4---2-4---4---2-0---|-3-3--3--3-5-5--5----2--2--||
B|-2---0-2---2---0-----|-2---0-2---2---5-2-0-|-2---0-2---2---0-----|-----------3-3--3--0-0--0--||


E|-----------------||
B|-----------------||
G|-----------------||
D|-----------------||
A|-4---------------||
E|-4---------------||
B|-2---------------||

END


*********************************************************************

b(n) - bend to specified pitch eg 7b(8)
(n)r - release bend
/ - slide up
\ - slide down
x - palm mute
. - staccato note
h - hammer on
p - pull off
t - tap
(n) - ghost note
 - pinch harmonic
[n] natural harmonic

NOTE VALUES
w - whole note
w. - dotted whole note
h - half note
h. - dotted half note
q - quarter note
q. - dotted quarter note
e - eighth note
e. - dotted eighth note
s - sixteenth note
s. dotted sixteenth note
t - thirtysecond note
t. - dotted thirtysecond note
a - sixtyfourth note
a.  -dotted sixtyfourth note
|-3-| - triplets

*********************************************************************

            
            
Suggest correction
Creating personal tab
Creating personal tab
You can edit any tab online and save it as your Personal.

You can edit, replace or remove any tab part or add personal notes – all changes will be seen only by you.

Personal tabs can be accessed anytime from any device, even offline.
Learn more »
Give kudos to tab author, rate the tab!
1 2 3 4 5
comments
print report bad tab
guest
You may want to rate the tab now too:
select rating
Wanna post a correction for this tab? Suggest correction