Oops, an error
Loading. Please wait.

Learning To Live solo bass

version 1
version 1

Solo

Whole song

261 views 1 this week
no commentswrite comment
1 2 3 4 5
3 more votes to show rating
add to favorites
×
Save as Personal and add changes to this tab that will be seen only by you. Learn more ›
×
You can save this tab as Personal to edit and correct it or add notes. All changes will be seen only by you. Learn more »
launch autoscroll
font size
0
reset
guitar tuner
backing track
0:00
0:00
edit
Autoscroll
slow
fast
+/-
esc
set tempo
stop
Author
Difficulty
-------------------------------------------------------------------------------
                   LEARNING TO LIVE SOLO BASS - Dream Theater
-------------------------------------------------------------------------------
Tabbed by: z74nk
E-mail: z74nk@yahoo.co.id

Tuning: Standard 4-String

I'm using 4-String mode because some guy told me that Myung still using 4-String
Bass while recording this song. I'm just transcribe the bass tab from Unison Solo
(07:52) to "Wait For Sleep" Unison Solo (08:54) because I don't have any time to
finish them all and there's too many guy that post all bass section accurately, but
no one has decipher the "Myung's Solo". So, here it is and hope you like it.

P.S. This is the first time I wrote a bass tab. The beat isn't exactly as same as
I wrote, so you need to hear the song first to know the beat. Maybe you'll find
some strange fingering because I've tried to transcribe it and practice it with my
bass. Don't worry, this is the most comfortable fingering position, so you can
learn it easily. Sorry for my bad writing. Comments and opinions are welcomed.

(07:52) Unison Solo
G|-------------------------------------|
D|-2--x--2--------0--2--4--5--4--0-----| 3x
A|-------------2--------------------2--|
E|-------------------------------------|

G|-------------------------------------------------7--------7-----|
D|-2--x--2--------0--2--4--2--x--2-----0--2--4--5-----5--4-----4--|
A|-------------2--------------------2-----------------------------|
E|----------------------------------------------------------------|

G|-------------------------------------------------------|
D|-2--x--2--------0--2--4--5-----4-----2--0-----------0--|
A|-------------2--------------2-----2--------2--0--2-----|
E|-------------------------------------------------------|

G|-------------------------------2--------------------------|
D|-2--x--2--0-----------2-----------4--0-----2--0--2--0-----|
A|-------------2-----0-----4--5-----------2--------------2--|
E|----------------3-----------------------------------------|

G|---------------------7--7-7-7--4--------------|-R-|
D|-5--5-5-5--4--4-4-4---------------5--2--0--2--|-E-|
A|----------------------------------------------|-S-|
E|----------------------------------------------|-T-|

(08:19) "Wait For Sleep" Instrumental
Part I - 2x
G|----9--------7-----9--------7-----9--------7-----9--------|
D|-------7--9-----------7--9-----------7--9-----------7--9--|
A|-7--------------7--------------7--------------7-----------|
E|----------------------------------------------------------|

G|--------------------------------------------|
D|----10------7--10-----10------7--10-----10--|
A|--------10----------------10----------------|
E|-8-----------------8-----------------8------|

G|-------------------------------|
D|----7--------7--------7-----7--|
A|-------5--7--------------5-----|
E|-5--------------8--7-----------|

Part II
G|----9--------7-----9--------7-----9--------7-----9--------|
D|-------7--9-----------7--9-----------7--9-----------7--9--|
A|-7--------------7--------------7--------------7-----------|
E|----------------------------------------------------------|

G|--------------------------------------------|
D|----10------7--10-----10------7--10-----10--|
A|--------10----------------10----------------|
E|-8-----------------8-----------------8------|

G|-------------------------------------|
D|----7--------7--------7-----------7--|
A|-------5--7--------------5-----5-----|
E|-5--------------8--7--------7--------|

(08:40) Petrucci's and "Myung's Solo"
In this section, Myung play a pretty fast tab right behind Petrucci's Solo.
I called it "Myung's Solo" because this is the most difficult part to play in
this song.
G|----------------------------------------9----------------------------------|
D|----7--------7-----------9-----------------7--9--7-------------------------|
A|-------5--7-----------9-----9-----5--7--------------7---------7--10--------|
E|-5--------------8--7-----------7-----------------------8--10---------8--7--|

G|----------------------------------7-----9--------7-----9--------7--9--(9)\--|
D|----7--------7-----------9-----------------7--9-----------7--9--------------|
A|-------5--7-----------9--------9-----7--------------7-----------------------|
E|-5--------------8--7--------7-----------------------------------------------|

G|----------------------------------------9----------------------------------|
D|----7--------7-----------9-----------------7--9--7-------------------------|
A|-------5--7-----------9-----9-----5--7--------------7---------7--10--------|
E|-5--------------8--7-----------7-----------------------8--10---------8--7--|

G|----------------------------------7--|
D|----7--------7-----------9-----------|
A|-------5--7-----------9--------9-----|
E|-5--------------8--7--------7--------|

(08:54) "Wait For Sleep" Unison Solo
Part I
G|----9--------7-----9--------7-----9--------7-----9--------|
D|-------7--9-----------7--9-----------7--9-----------7--9--|
A|-7--------------7--------------7--------------7-----------|
E|----------------------------------------------------------|

G|--------------------------------------------|
D|----10------7--10-----10------7--10-----10--|
A|--------10----------------10----------------|
E|-8-----------------8-----------------8------|

G|-------------------------------|
D|----7--------7--------7-----7--|
A|-------5--7--------------5-----|
E|-5--------------8--7-----------|

Part II
G|----9--------7-----9--------7-----9--------7-----9--------|
D|-------7--9-----------7--9-----------7--9-----------7--9--|
A|-7--------------7--------------7--------------7-----------|
E|----------------------------------------------------------|

G|--------------------------------------------|
D|----10------7--10-----10------7--10-----10--|
A|--------10----------------10----------------|
E|-8-----------------8-----------------8------|

G|-------------------------------------|
D|----7--------7--------7--------------|
A|-------5--7--------------5-----5--7--|
E|-5--------------8--7--------7--------|


| /  slide up
| \  slide down
| h  hammer-on
| p  pull-off
| ~  vibrato
| +  harmonic
| x  Mute note
===============================================================================
Tabber's Log
Version 1
- Initial tab.

Version 2
- Adding ending part "Wait For Sleep" Instrumental and Unison.
===============================================================================

            
            
Suggest correction
Creating personal tab
Creating personal tab
You can edit any tab online and save it as your Personal.

You can edit, replace or remove any tab part or add personal notes – all changes will be seen only by you.

Personal tabs can be accessed anytime from any device, even offline.
Learn more »
Give kudos to tab author, rate the tab!
1 2 3 4 5
comments
print report bad tab
guest
You may want to rate the tab now too:
select rating
Wanna post a correction for this tab? Suggest correction