Oops, an error
Loading. Please wait.
We have an official Strange Deja Vu tab made by UG professional guitarists. Check out the tab »
×

Strange Deja Vu tab

version 2
version 2

Whole song

  • Parts are labeled/easy to follow with better tabs for intro, outro and chorus.

Interactive

352 views 1 this week
no commentswrite comment
1 2 3 4 5
3 more votes to show rating
add to favorites
×
Save as Personal and add changes to this tab that will be seen only by you. Learn more ›
×
You can save this tab as Personal to edit and correct it or add notes. All changes will be seen only by you. Learn more »
launch autoscroll
font size
0
reset
how to read this tab
guitar tuner
backing track
0:00
0:00
edit
Autoscroll
slow
fast
+/-
esc
set tempo
stop
Author
Difficulty
About this tab version
Parts are labeled/easy to follow with better tabs for intro, outro and chorus. Was this info helpful? Yes No
[Intro]

e|---------------------------------------------------------------------------|
B|---------------------------------------------------------------------------|
G|---8-8-8-8--8-8-8-8--7-7-7--7-7-7-7----------------------------------------|
D|---6-6-6-6--6-6-6-6--6-6-6--6-6-6-6--------6-------7-----------------------|
A|---------------------------------------------5-------6---------------------|
E|---4-4-4-4--4-4-4-4--4-4-4--4-4-4-4----0-4-----4-5-----5-------------------|


[Verse]

e|-------------------------------------|--------------------------------------------------------------------|
B|-------------------------------------|---------------------=----------------------------------------------|
G|---8-8-8-8--8-8-8-8--7-7-7--7-7-7-7--|--8-8-8-8--8-8-8-8--7-7-7--7-7-7-7----------------------------------|
D|---6-6-6-6--6-6-6-6--6-6-6--6-6-6-6--|--6-6-6-6--6-6-6-6--6-6-6--6-6-6-6--------6-------7-----------------|
A|-------------------------------------|--------------------------------------------5-------6---------------|
E|---4-4-4-4--4-4-4-4--4-4-4--4-4-4-4--|--4-4-4-4--4-4-4-4--4-4-4--4-4-4-4----0-4-----4-5-----5-------------|

e|-------------------------------------|--------------------------------------------------------------------|
B|-------------------------------------|--------------------------------------------------------------------|
G|---5-5-5-5--5-5-5-5--4-4-4--4-4-4-4--|--5-5-5-5--5-5-5-5--4-4-4--4-4-4-4----------------------------------|
D|---3-3-3-3--3-3-3-3--3-3-3--3-3-3-3--|--3-3-3-3--3-3-3-3--3-3-3--3-3-3-3--------3-------4-----------------|
A|-------------------------------------|--------------------------------------------2-------3---------------|
E|---1-1-1-1--1-1-1-1--1-1-1--1-1-1-1--|--1-1-1-1--1-1-1-1--1-1-1--1-1-1-1----0-1-----1-2-----2-------------|

e|-------------------------------------|--------------------------------------------------------------------|
B|-------------------------------------|---------------------=----------------------------------------------|
G|---8-8-8-8--8-8-8-8--7-7-7--7-7-7-7--|--8-8-8-8--8-8-8-8--7-7-7--7-7-7-7----------------------------------|
D|---6-6-6-6--6-6-6-6--6-6-6--6-6-6-6--|--6-6-6-6--6-6-6-6--6-6-6--6-6-6-6--------6-------7-----------------|
A|-------------------------------------|--------------------------------------------5-------6---------------|
E|---4-4-4-4--4-4-4-4--4-4-4--4-4-4-4--|--4-4-4-4--4-4-4-4--4-4-4--4-4-4-4----0-4-----4-5-----5-------------|

e|-------------------------------------|--------------------------------------------------------------------|
B|-------------------------------------|--------------------------------------------------------------------|
G|---5-5-5-5--5-5-5-5--4-4-4--4-4-4-4--|--5-5-5-5--5-5-5-5--4-4-4--4-4-4-4----------------------------------|
D|---3-3-3-3--3-3-3-3--3-3-3--3-3-3-3--|--3-3-3-3--3-3-3-3--3-3-3--3-3-3-3--------3-------4-----------------|
A|-------------------------------------|--------------------------------------------2-------3---------------|
E|---1-1-1-1--1-1-1-1--1-1-1--1-1-1-1--|--1-1-1-1--1-1-1-1--1-1-1--1-1-1-1----0-1-----1-2-----2-------------|


[Pre-Chorus]

                           PM  PM-|  PM-|                                  PM  PM-|   PM-| 
e|------------------|------------------------------|-----------------|------------------------------|
B|------------------|------------------------------|-----------------|------------------------------|
G|------------------|------------------------------|-----------------|------------------------------|
D|------------------|--------6-----4---------------|-----------------|--------6-----4---------------|
A|------------------|---------------------6-7-6-4--|-----------------|---------------------4-6-4-3--|
E|---4p1-2-5--5-4~--|--4p2-4---4-4---4-4-----------|--4p1-2-5--5-4~--|--4p2-4---4-4---4-4-----------|

                           PM  PM-|  PM-|                                 PM  PM-|  PM-|
e|-----------------|------------------------------|----------------|----------------------------------------|
B|-----------------|------------------------------|----------------|----------------------------------------|
G|-----------------|------------------------------|----------------|------------------------------------6-6-|
D|-----------------|--------4-----2---------------|----------------|--------4-----2-----6-7-6-4---------6-6-|
A|-----------------|---------------------6-7-6-4--|----------------|----------------------------7-6-4---4-4-|
E|---1-2-4-5--4-2~-|--2p0-2---2-2---2-2-----------|--7-5-4-5--4-2~-|--2p0-2---2-2---2-2---------------7-----|


[Verse]

         PM-|  PM-|             PM-|   PM-|             PM-|  PM-|             PM-|  PM-|
e|-----------------------|-----------------------|----------------------|------------------------|
B|-----------------------|-----------------------|----------------------|------------------------|
G|---8-------8-----7--5--|--8-------10-----7--8--|--5-------5-----4--2--|--5-------7-----4--5----|
D|---6---6-6-6-6-6-6--6--|--6---6-6-6--6-6-6--6--|--3---3-3-3-3-3-3--3--|--3---3-3-3-3-3-3--3----|
A|-----------------------|-----------------------|----------------------|------------------------|
E|-----------------------|-----------------------|----------------------|------------------------|

         PM-|  PM-|                 PM-|   PM-|             PM-|  PM-|                 PM-|  PM-|
e|---------------------------|-----------------------|--------------------------|------------------------|
B|---------------------------|-----------------------|--------------------------|------------------------|
G|---8-------8-----7--5-5h7--|--8-------10-----7--8--|--5-------5-----4--2-2h4--|--5-------7-----4--5----|
D|---6---6-6-6-6-6-6--6------|--6---6-6-6--6-6-6--6--|--3---3-3-3-3-3-3--3------|--3---3-3-3-3-3-3--3----|
A|---------------------------|-----------------------|--------------------------|------------------------|
E|---------------------------|-----------------------|--------------------------|------------------------|

e|------------------------------------|-------------------------------------|
B|------------------------------------|-------------------------------------|
G|---11--11-10-8-----11--11-10-8------|--13--13-12-10-----13--13-12--10-10--|
D|---9---9--9--9-x-x-9---9--9--9-x-x--|--11--11-11-11-x-x-11--11-11--11-11--|
A|------------------------------------|-------------------------------------|
E|------------------------------------|-------------------------------------|


[Pre-Chorus]

                           PM  PM-|  PM-|                                  PM  PM-|   PM-| 
e|------------------|------------------------------|-----------------|------------------------------|
B|------------------|------------------------------|-----------------|------------------------------|
G|------------------|------------------------------|-----------------|------------------------------|
D|------------------|--------6-----4---------------|-----------------|--------6-----4---------------|
A|------------------|---------------------6-7-6-4--|-----------------|---------------------4-6-4-3--|
E|---4p1-2-5--5-4~--|--4p2-4---4-4---4-4-----------|--4p1-2-5--5-4~--|--4p2-4---4-4---4-4-----------|

                           PM  PM-|  PM-|                                 PM  PM-|  PM-|
e|-----------------|------------------------------|----------------|-------------------------------------|
B|-----------------|------------------------------|----------------|-------------------------------------|
G|-----------------|------------------------------|----------------|-------------------------------------|
D|-----------------|--------4-----2---------------|----------------|--------4-----2-----6-7-6-4----------|
A|-----------------|---------------------6-7-6-4--|----------------|----------------------------6-7-6----|
E|---1-2-4-5--4-2~-|--2p0-2---2-2---2-2-----------|--7-5-4-5--4-2~-|--2p0-2---2-2---2-2---------------7--|

                                     PM-|
e|------|-----|--0--|-----------|-----------|------5-----|------4-----|------2-----|--------0---------|
B|------|-----|--5--|-----------|-----------|---------5--|---------4--|---------2--|-----------4------|
G|---6--|--2--|--4--|-----------|--6-----6--|------------|------------|------------|------4------4----|
D|---6--|--2--|--2--|-----------|--6-----6--|--7---------|--6---------|--4---------|----4----------4--|
A|---4--|--0--|-----|--------6--|--4-4-4-4--|--7---------|--6---------|--4---------|--2---------------|
E|------|-----|--4--|--2-4-5----|-----------|--5---------|--4---------|--2---------|------------------|


[Chorus]

e|------------------|-------------------|------------------|-------------------|------------------|
B|---------0-----0--|---------0--0------|---------0--------|---------0----0----|---------0-----0--|
G|-------2-----2----|-------4------4----|-------2----------|------------2------|-------2-----2----|
D|-----2-----2------|-----4----------4--|-----2---------4--|-------4--------4--|-----2-----2------|
A|---0--------------|---2---------------|---0---------2----|-----4-------------|---0--------------|
E|------------------|-------------------|-----------0------|---2---------------|------------------|

                                                                     Dive w/ Bar
e|-------------------|---------3-----|---------3--2--|------|------|--------------------------|
B|---------0--0------|------------3--|-------3----3--|------|------|--------------------------|
G|-------4------4----|-------5-------|-----2---------|------|------|-------------[5]-[5]-[5]--|
D|-----4----------4--|-----5---------|---0-----------|---2--|---2--|--------------------------|
A|---2---------------|---3-----------|---------------|---2--|---2--|--------------------------|
E|-------------------|---------------|---------------|---0--|---0--|---0\---------------------|

            PM    PM         PM                PM    PM         PM 
e|----------------------------------|-------------------------------------|
B|----------------------------------|-------------------------------------|
G|----------------------------------|-------------------------------------|
D|----------------------------------|-------------------------------------|
A|------5-7---5p7---5-7~-5-7---5/7--|------5-7---5p7---5-7~-5-7-----------|
E|---0------0-----0----------0-3/5--|---0------0-----0----------0-/5-\3~--|

            PM    PM         PM----------||           PM    PM          PM        
e|------------------------------------------|--------------------------------------------------|
B|------------------------------------------|--------------------------------------------------|
G|------------------------------------------|-------------------------------------[5]-[5]-[5]--|
D|------------------------------------------|-------------------------------------[5]-[5]-[5]--|
A|------5-7---5p7---5-7~-5-7---------5-6-7--|------5-7---5p7---5-7~-5-7------------------------|
E|---0------0-----0----------0-5-6-7--------|---0------0-----0----------0-3-4-5-0--------------|


[Verse]

            PM    PM         PM|               PM    PM         PM| 
e|----------------------------------|----------------------------------|
B|----------------------------------|----------------------------------|
G|----------------------------------|----------------------------------|
D|----------------------------------|----------------------------------|
A|------5-7---5p7---5-7~-5-7-----7--|------5-7---5p7---5-7~-5-7-----7--|
E|---0------0-----0----------0-3/5--|---0------0-----0----------0-3\5--|

            PM    PM         PM|               PM    PM         PM| 
e|----------------------------------|----------------------------------|
B|----------------------------------|----------------------------------|
G|----------------------------------|----------------------------------|
D|----------------------------------|----------------------------------|
A|------5-7---5p7---5-7~-5-7-----7--|------5-7---5p7---5-7~-5-7-----7--|
E|---0------0-----0----------0-3/5--|---0------0-----0----------0-3\5--|

            PM    PM         PM|              PM    PM         PM| 
e|----------------------------------|----------------------------------|
B|----------------------------------|----------------------------------|
G|-12\------------------------------|-12\------------------------------|
D|-12\------------------------------|-12\------------------------------|
A|------5-7---5p7---5-7~-5-7-----7--|------5-7---5p7---5-7~-5-7-----7--|
E|----------0-----0----------0-3/5--|----------0-----0----------0-3\5--|

            PM    PM         PM                PM    PM          
e|----------------------------------|------------------------------------|
B|----------------------------------|------------------------------------|
G|-12\------------------------------|-12\--------------------------------|
D|-12\------------------------------|-12\--------------------------------|
A|------5-7---5p7---5-7~-5-7---5/7--|------5-7---5p7---5-7~-5-7----------|
E|----------0-----0----------0-3/5--|----------0-----0----------0-3-4-5--|

 |          PM    PM         PM                PM    PM          
e|----------------------------------|------------------------------------|
B|----------------------------------|------------------------------------|
G|-12\------------------------------|-12\--------------------------------|
D|-12\--4-5---4p5---4-5~-4-5--------|-12\--4-5---4p5---4-5~-4-5----------|
A|----------------------------------|------------------------------------|
E|----------0-----0----------0-3/5--|----------0-----0-------------------|

e|------------------------------------|-------------------------------------|
B|------------------------------------|-------------------------------------|
G|------------------------------------|-------------------------------------|
D|----------------2-------------------|----------------2----------2---------|
A|---4~---------2---4~----------------|---4~---------2---4~---------4-2-----|
E|------0-2-3-4--------0-2-3-4-3-2-0--|------0-2-3-4--------0-2-4-------4~--|

e|------------------------------------|-------------------------------------|
B|------------------------------------|-------------------------------------|
G|------------------------------------|-------------------------------------|
D|----------------2-------------------|----------------2----------4---------|
A|---4~---------2---4~----------------|---4~---------2---4~---------6-4-----|
E|------0-2-3-4--------0-2-3-4-3-2-0--|------0-2-3-4--------0-2-4-------7~--|

            PM                                PM    
e|---------------------------------|-----------------------------------|
B|---------------------------------|-----------------------------------|
G|---------------------------------|-----------------------------------|
D|------4-6---4p6------------------|------4-6---4p6--------------------|
A|---------------------4-6-4~------|---------------------4-6-4~--------|
E|---4------4-----4-7~--------7-2--|---4------4-----4-7~--------7-2-3--|

            PM                                PM    
e|---------------------------------|------------------------------------|
B|---------------------------------|------------------------------------|
G|---------------------------------|------------------------------------|
D|------4-6---4p6------------------|------4-6---4p6---------------------|
A|---------------------4-6-4~------|---------------------4-6---------2--|
E|---4------4-----4-7~--------7-2--|---4------4-----4-7~------2--3-4----|


                                                          PM-|
e|------|------|-------|-------2-----|-------------|-------------|-------------|
B|------|------|-------|----------2--|-------------|-------------|-------------|
G|---6--|---2--|-------|-------------|---7---7-----|---6------6--|-------------|
D|---6--|---2--|-------|---4---------|---7------7--|---6------6--|-------------|
A|---4--|---0--|-------|---4---------|---5---------|---4--4-4-4--|---2-4-5-----|
E|------|------|---4~--|---2---------|-------------|-------------|---------4~--|


[Pre-Chorus]

e|-------2-----|-------------|-------------|-------------|---0--|
B|----------2--|-------------|-------------|-------------|---5--|
G|-------------|---7---7-----|---6---6-----|---4---4-----|---4--|
D|---4---------|---7------7--|---6------6--|---4------4--|---2--|
A|---4---------|---5---------|---4---------|---2---------|---2--|
E|---2---------|-------------|-------------|-------------|---0--|


[Chorus]

e|------------------|-------------------|------------------|-------------------|------------------|
B|---------0-----0--|---------0--0------|---------0--------|---------0----0----|---------0-----0--|
G|-------2-----2----|-------4------4----|-------2----------|------------2------|-------2-----2----|
D|-----2-----2------|-----4----------4--|-----2---------4--|-------4--------4--|-----2-----2------|
A|---0--------------|---2---------------|---0---------2----|-----4-------------|---0--------------|
E|------------------|-------------------|-----------0------|---2---------------|------------------|
                                                                    
e|-------------------|---------3-----|---------3--2--|------------------|-------------------|
B|---------0--0------|------------3--|-------3----3--|---------0-----0--|---------0--0------|
G|-------4------4----|-------5-------|-----2---------|-------2-----2----|-------4------4----|
D|-----4----------4--|-----5---------|---0-----------|-----2-----2------|-----4----------4--|
A|---2---------------|---3-----------|---------------|---0--------------|---2---------------|
E|-------------------|---------------|---------------|------------------|-------------------|

e|------------------|-------------------|------------------|------------------|---------3-----|
B|---------0--------|---------0----0----|---------0-----0--|---------0-0------|------------3--|
G|-------2----------|------------2------|-------2-----2----|-------4-----4----|-------5-------|
D|-----2---------4--|-------4--------4--|-----2-----2------|-----4---------4--|-----5---------|
A|---0---------2----|-----4-------------|---0--------------|---2--------------|---3-----------|
E|-----------0------|---2---------------|------------------|------------------|---------------|

                                  Let Ring--|                             
e|----------|---------3--2--|--------------5--|---3--||
B|----------|-------3----3--|------------3----|---3--||
G|---9\7\5--|-----2---------|-----------------|---0--||
D|----------|---0-----------|-----------------|---0--||
A|---7\5\3--|---------------|-----------------|------||
E|----------|---------------|---0--2~~--------|---3--||



Please note: Measures are not always completely accurate but are used chiefly to divide up the tab.



************************************

| x   Dead note
| h   Hammer-on
| p   Pull-off
| /   Slide Up
| \   Slide down
| ~   Vibrato
| PM  Palm mute
| [n] Natural Harmonic

************************************

            
            
Suggest correction
Creating personal tab
Creating personal tab
You can edit any tab online and save it as your Personal.

You can edit, replace or remove any tab part or add personal notes – all changes will be seen only by you.

Personal tabs can be accessed anytime from any device, even offline.
Learn more »
Give kudos to tab author, rate the tab!
1 2 3 4 5
comments
print report bad tab
guest
You may want to rate the tab now too:
select rating
Wanna post a correction for this tab? Suggest correction