Oops, an error
Loading. Please wait.

The Count Of Tuscany tab

version 1
version 1
210,804 views 177 this week
17 commentsread comments
1 2 3 4 5
x 63
add to favorites
×
Save as Personal and add changes to this tab that will be seen only by you. Learn more ›
×
You can save this tab as Personal to edit and correct it or add notes. All changes will be seen only by you. Learn more »
launch autoscroll
font size
0
reset
how to read this tab
guitar tuner
backing track
0:00
0:00
edit
Autoscroll
slow
fast
+/-
esc
set tempo
stop
Author
-------------------------------------------------------------------------------
                       The Count of Tuscany - Dream Theater
-------------------------------------------------------------------------------

Tabbed by: Dan Wright
Email: muzikvlr1714@yahoo.com

Tuning: Standard (eBGDAE)

    1   +   2   +   3   +      1   +   2   +   3   +      1   +   2   +   3   +
e|--------------------------|--------------------------|--------------------------|
B|----------0---------------|----------0---------------|----------0---------------|
G|------------------3-------|------------------3-------|------------------3-------|
D|------4---------------4---|------4---------------4---|------4---------------4---|
A|--------------------------|--------------------------|--2-----------------------|
E|--4-----------------------|--4-----------------------|--------------------------|

    1   +   2   +   3   +      1   +   2   +   3   +      1   +   2   +   3   +
e|--------------------------|--------------------------|--------------------------|
B|----------0---------------|----------0---------------|----------0---------------|
G|------------------3-------|------------------3-------|------------------3-------|
D|------4---------------4---|------4---------------4---|------4---------------4---|
A|--2-----------------------|--------------------------|--------------------------|
E|--------------------------|--2-----------------------|--2-----------------------|

    1   +   2   +   3   +      1   +   2   +   3   +      1   +   2   +   3   +
e|--------------------------|--------------------------|--------------------------|
B|----------0---------------|----------0---------------|----------0---------------|
G|------------------3-------|------------------3-------|------------------3-------|
D|------4---------------4---|------4---------------4---|------4---------------4---|
A|--------------------------|--------------------------|--------------------------|
E|--0-----------------------|--0-----------------------|--4-----------------------|

    1   +   2   +   3   +      1   +   2   +   3   +      1   +   2   +   3   +
e|--------------------------|--------------------------|--------------0-----------|
B|----------0---------------|--------------------------|------------------0-------|
G|------------------3-------|----------6---------------|----------8-----------8---|
D|------4---------------4---|--------------------------|--------------------------|
A|--------------------------|------9-----------9-------|------9-------------------|
E|--4-----------------------|--6-------------------6---|--7-----------------------|

    1   +   2   +   3   +      1   +   2   +   3   +      1   +   2   +   3   +
e|--------------0-----------|--------------------------|--------------------------|
B|------------------0-------|----------0---------------|----------0-----------0---|
G|----------8-----------8---|-----------------3--------|--------------------------|
D|--------------------------|------4---------------4---|------4-----------4-------|
A|------9-------------------|--------------------------|--------------------------|
E|--7-----------------------|--0-----------------------|--0-----------2-----------|

[Guitar 1]
    1   +   2   +   3   +      1   +   2   +   3   +      1   +   2   +   3   +
e|--------------------------|--------------------------|--------------------------|
B|----------0---------------|----------0-----------0---|----------0---------------|
G|------------------3-------|--------------------------|------------------3-------|
D|------4---------------4---|------4-----------4-------|------4---------------4---|
A|--------------------------|--------------------------|--------------------------|
E|--0-----------------------|--0-----------2-----------|--4-----------------------|
                                                                                  |
[Guitar 2]                                                                         |
    1   +   2   +   3   +      1   +   2   +   3   +      1   +   2   +   3   +   |
e|--------------------------|--------------------------|--------------------------|
B|--------------------------|--------------------------|--------------------------|
G|--------------------------|--------------------------|--------------------------|
D|--------------------------|--------------------------|-/6-----------------------|
A|--------------------------|--------------------------|--------------------------|
E|--------------------------|--------------------------|--------------------------|

[Guitar 1]
    1   +   2   +   3   +      1   +   2   +   3   +      1   +   2   +   3   +
e|--------------------------|--------------------------|--------------------------|
B|----------0---------------|----------0---------------|----------0---------------|
G|------------------3-------|------------------3-------|------------------3-------|
D|------4---------------4---|------4---------------4---|------4---------------4---|
A|--------------------------|--2-----------------------|--2-----------------------|
E|--4-----------------------|--------------------------|--------------------------|
                                                                                  |
[Guitar 2]                                                                         |
    1   +   2   +   3   +      1   +   2   +   3   +      1   +   2   +   3   +   |
e|--------------------------|--------------------------|--------------------------|
B|--------------------------|--------------------------|--------------------------|
G|--------------------------|--------------------------|------------------4---6/8-|
D|(6)\0-----r------/6---8---|--9---8b9b8-----------4---|-------------/4-----------|
A|--------------------------|--------------------------|--------------------------|
E|--------------------------|--------------------------|--------------------------|

[Guitar 1]
    1   +   2   +   3   +      1   +   2   +   3   +      1   +   2   +   3   +
e|--------------------------|--------------------------|--------------------------|
B|----------0---------------|----------0---------------|----------0---------------|
G|------------------3-------|------------------3-------|------------------3-------|
D|------4---------------4---|------4---------------4---|------4---------------4---|
A|--------------------------|--------------------------|--------------------------|
E|--2-----------------------|--2-----------------------|--0-----------------------|
                                                                                  |
[Guitar 2]                                                                         |
    1   +   2   +   3   +      1   +   2   +   3   +      1   +   2   +   3   +   |
e|--------------21----------|(21)\0r-------------------|--------------------------|
B|--------------------------|--------------------------|--------------------------|
G|--6-----------------------|--------------3-h-4---4/6-|--4v-------------/9---8---|
D|--------------------------|---------/4---------------|--------------------------|
A|--------------------------|--------------------------|--------------------------|
E|--------------------------|--------------------------|--------------------------|

[Guitar 1]
    1   +   2   +   3   +      1   +   2   +   3   +      1   +   2   +   3   +
e|--------------------------|--------------------------|--------------------------|
B|----------0---------------|----------0---------------|----------0---------------|
G|------------------3-------|------------------3-------|------------------3-------|
D|------4---------------4---|------4---------------4---|------4---------------4---|
A|--------------------------|--------------------------|--------------------------|
E|--0-----------------------|--4-----------------------|--4-----------------------|
                                                                                  |
[Guitar 2]                                                                         |
    1   +   2   +   3   +      1   +   2   +   3   +      1   +   2   +   3   +   |
e|--------------------------|--------------------------|--------------------------|
B|--------------------------|--9v--------------(9)\4---|--4-h-5---4v--------------|
G|--9v------------------8911|--------------------------|----------------------4/--|
D|------------------8911----|--------------------------|--------------------------|
A|--------------------------|--------------------------|--------------------------|
E|--------------------------|--------------------------|--------------------------|

[Guitar 1]
    1   +   2   +   3   +      1     +     2     +     3     +     1   +   2   +   3   +
e|--------------------------|--------------------0--------------|--------------------------|
B|--------------------------|--------------------------0--------|----------0---------------|
G|----------6---------------|--------------8-----------------8--|------------------3-------|
D|--------------------------|-----------------------------------|------4---------------4---|
A|------9-----------9-------|--------9--------------------------|--------------------------|
E|--6-------------------6---|--7--------------------------------|--0-----------------------|
                                                                                           |
[Guitar 2]                                                                                  |
    1   +   2   +   3   +      1     +     2     +     3     +     1   +   2   +   3   +   |
e|----------------------1918|--16-------------------------------|--------------------------|
B|--19--17------------------|-----19-17-16-17161716-------------|--16b17-------16----------|
G|----------20--18--16------|----------------------18-1615------|--------------------------|
D|----16--16--16--16--16----|-----------------------------181614|--------------------------|
A|--------------------------|-----------------------------------|--------------------------|
E|--------------------------|-----------------------------------|--------------------------|

[Guitar 1]
    1   +   2   +   3   +      1   +   2   +   3   +      1   +   2   +   3   +
e|--------------------------|--------------------------|--------------------------|
B|----------0-----------0---|----------0---------------|------------------0-------|
G|--------------------------|------------------3-------|------------3-------------|
D|------4-----------4-------|------4---------------4---|------4-------------------|
A|--------------------------|--------------------------|--------------------------|
E|--0-----------2-----------|--0-----------------------|--0-----------------------|
                                                                                  |
[Guitar 2]                                                                         |
    1   +   2   +   3   +      1   +   2   +   3   +      1   +   2   +   3   +   |
e|--------------------------|--------------------------|--------------------------|
B|--------------------161719|--17v---------16v---------|-\12v---------\7v---------|
G|--16v---------151618------|--------------------------|--------------------------|
D|--------141618------------|--------------------------|--------------------------|
A|--------------------------|--------------------------|--------------------------|
E|--------------------------|--------------------------|--------------------------|

[Guitar 1]
    1   +   2   +   3   +      1   +   2   +   3   +
e|--0-----------------------|--r-----------------------|
B|--------------------------|--------------------------|
G|--------------------------|--------------------------|
D|--------------------------|--------------------------|
A|--------------------------|--------------------------|
E|--------------------------|--------------------------|
                                                       |
[Guitar 2]                                              |
    1   +   2   +   3   +      1   +   2   +   3   +   |
e|--------------------------|--------------------------|
B|--7h9v--------------------|(7)\----------------------|
G|--------------------------|--------------------------|
D|--------------------------|--------------------------|
A|--------------------------|--------------------------|
E|--------------------------|--------------------------|

    1   +   2   +   3   +   4   +   5   +   6   +
e|--------------12----------------------------------|
B|--------------12--------------------------0-------|
G|----------------------------------3---------------|
D|--------------------------4-----------------------|
A|--------------------------------------------------|
E|--0-----------------------------------------------|

    1   +   2   +   3   +   4   +   5   +   6   +   7   +   8   +   9   +
e|--------------5-----------------------------------------------------------|
B|--------------5---------------------------0-----------------------0-------|
G|----------------------------------3-----------------------3---------------|
D|--------------------------4-----------------------6-----------------------|
A|--------------------------------------------------------------------------|
E|--0-----------------------------------------------------------------------|

    1   +   2   +   3   +   4   +   5   +   6   +      1   +   2   +   3   +   4   +   5   +   6   +
e|--------------12----------------------------------|--------------5-----------------------------------|
B|--------------12--------------------------0-------|--------------5---------------------------0-------|
G|----------------------------------3---------------|----------------------------------3---------------|
D|--------------------------4-----------------------|--------------------------4-----------------------|
A|--------------------------------------------------|--------------------------------------------------|
E|--0-----------------------------------------------|--0-----------------------------------------------|

    1   +   2   +   3   +   4   +   5   +   6   +      1   +   2   +   3   +   4   +   5   +   6   +
e|----------------------------------0---------------|--------------12----------------------------------|
B|------------------0-----------------------0-------|--------------12--------------------------0-------|
G|----------3---------------------------------------|----------------------------------3---------------|
D|--6-----------------------8-----------------------|--------------------------4-----------------------|
A|--------------------------------------------------|--------------------------------------------------|
E|--------------------------------------------------|--0-----------------------------------------------|

    1   +   2   +   3   +   4   +   5   +   6   +   7   +   8   +   9   +
e|--------------5-----------------------------------------------------------|
B|--------------5---------------------------0-----------------------0-------|
G|----------------------------------3-----------------------3---------------|
D|--------------------------4-----------------------6-----------------------|
A|--------------------------------------------------------------------------|
E|--0-----------------------------------------------------------------------|

    1   +   2   +   3   +   4   +   5   +   6   +      1   +   2   +   3   +   4   +   5   +   6   +
e|--------------12----------------------------------|--------------5-----------------------------------|
B|--------------12--------------------------0-------|--------------5---------------------------0-------|
G|----------------------------------3---------------|----------------------------------3---------------|
D|--------------------------4-----------------------|--------------------------4-----------------------|
A|--------------------------------------------------|--------------------------------------------------|
E|--0-----------------------------------------------|--0-----------------------------------------------|

    1   +   2   +   3   +   4   +   5   +   6   +      1   +   2   +   3   +   4   +   5   +   6   +
e|----------------------------------0---------------|--------------------------------------------------|
B|------------------0-----------------------0-------|--------------0---------------------------0-------|
G|----------3---------------------------------------|----------------------------------3---------------|
D|--6-----------------------8-----------------------|--------------------------4-----------------------|
A|--------------------------------------------------|--------------------------------------------------|
E|--------------------------------------------------|--0-----------------------------------------------|

    1   +   2   +   3   +   4   +   5   +   6   +   7   +   8   +   9   +
e|--------------------------------------------------------------------------|
B|--------------0---------------------------0-----------------------0-------|
G|----------------------------------3-----------------------3---------------|
D|--------------------------4-----------------------6-----------------------|
A|--------------------------------------------------------------------------|
E|--0-----------------------------------------------------------------------|

    1   +   2   +   3   +   4   +   5   +   6   +      1   +   2   +   3   +   4   +   5   +   6   +
e|--------------------------------------------------|--------------------------------------------------|
B|--------------0---------------------------0-------|--------------0---------------------------0-------|
G|----------------------------------3---------------|----------------------------------3---------------|
D|--------------------------4-----------------------|--------------------------4-----------------------|
A|--------------------------------------------------|--------------------------------------------------|
E|--0-----------------------------------------------|--0-----------------------------------------------|

[Guitar 1]
    1   +   2   +   3   +   4   +   5   +   6   +      1   +   2   +   3   +   4   +   5   +   6   +
e|----------------------------------0---------------|--------------------------------------------------|
B|------------------0-----------------------0-------|--------------0---------------------------0-------|
G|----------3---------------------------------------|----------------------------------3---------------|
D|--6-----------------------8-----------------------|--------------------------4-----------------------|
A|--------------------------------------------------|--------------------------------------------------|
E|--------------------------------------------------|--0-----------------------------------------------|
                                                                                                       |
[Guitar 2]                                                                                              |
    1   +   2   +   3   +   4   +   5   +   6   +      1   +   2   +   3   +   4   +   5   +   6   +   |
e|--------------------------------------------------|--------------------------------------------------|
B|--------------------------------------------------|--------------9------/----11------11------11------|
G|--------------------------------------------------|--------------9------/----11------11------11------|
D|--------------------------------------------------|--------------9------/----11----------------------|
A|--------------------------------------------------|--------------------------------------------------|
E|--------------------------------------------------|--0-----------------------------------------------|

[Guitar 1]
    1   +   2   +   3   +   4   +   5   +   6   +   7   +   8   +   9   +
e|--------------------------------------------------------------------------|
B|--------------0---------------------------0-----------------------0-------|
G|----------------------------------3-----------------------3---------------|
D|--------------------------4-----------------------6-----------------------|
A|--------------------------------------------------------------------------|
E|--0-----------------------------------------------------------------------|
                                                                            |
[Guitar 2]                                                                   |
    1   +   2   +   3   +   4   +   5   +   6   +   7   +   8   +   9   +   |
e|--------------------------------------------------------------------------|
B|--------------9-----/-----11------11------11--\---9-------9---------------|
G|--------------9-----/-----11--------------11--\---9---------------9-------|
D|--------------9-----/-----11--------------11--\---9-----------------------|
A|--------------------------------------------------------------------------|
E|--0-----------------------------------------------------------------------|

[Guitar 1]
    1   +   2   +   3   +   4   +   5   +   6   +      1   +   2   +   3   +   4   +   5   +   6   +
e|--------------------------------------------------|--------------------------------------------------|
B|--------------0---------------------------0-------|--------------0---------------------------0-------|
G|----------------------------------3---------------|----------------------------------3---------------|
D|--------------------------4-----------------------|--------------------------4-----------------------|
A|--------------------------------------------------|--------------------------------------------------|
E|--0-----------------------------------------------|--0-----------------------------------------------|
                                                                                                       |
[Guitar 2]                                                                                              |
    1   +   2   +   3   +   4   +   5   +   6   +      1   +   2   +   3   +   4   +   5   +   6   +   |
e|--------------------------------------------------|--------------------------------------------------|
B|--------------9-----/-----11------11--------------|--------------9-----/-----11------11------11------|
G|--------------9-----/-----11--------------11------|--------------9-----/-----11--------------11------|
D|--------------9-----/-----11----------------------|--------------9-----/-----11--------------11------|
A|--------------------------------------------------|--------------------------------------------------|
E|--0-----------------------------------------------|--0-----------------------------------------------|

[Guitar 1]
    1   +   2   +   3   +   4   +   5   +   6   +      1   +   2   +   3   +   4   +   5   +   6   +
e|----------------------------------0---------------|--------------------------------------------------|
B|------------------0-----------------------0-------|--------------0---------------------------0-------|
G|----------3---------------------------------------|----------------------------------3---------------|
D|--6-----------------------8-----------------------|--------------------------------------------------|
A|--------------------------------------------------|--------------------------------------------------|
E|--------------------------------------------------|--0-----------------------2-----------------------|
                                                                                                       |
[Guitar 2]                                                                                              |
    1   +   2   +   3   +   4   +   5   +   6   +      1   +   2   +   3   +   4   +   5   +   6   +   |
e|--------------------------------------------------|--------------------------------------------------|
B|--9-------9-------9---/---11------12--------------|--------------------------------------------------|
G|--9---------------9---/---11--------------11------|--------------------------------------------------|
D|--9---------------9---/---11----------------------|--------------------------------------------------|
A|--------------------------------------------------|--------------------------------------------------|
E|--------------------------------------------------|--------------------------------------------------|

    1   +   2   +   3   +   4   +   5   +   6   +   7   +   8   +   9   +
e|--------------------------------------------------------------------------|
B|--------------0---------------------------0-----------------------0-------|
G|----------------------------------3-----------------------3---------------|
D|--------------------------------------------------------------------------|
A|--------------------------------------------------------------------------|
E|--0-----------------------2-----------------------4-----------------------|

    1   +   2   +   3   +   4   +   5   +   6   +      1   +   2   +   3   +   4   +   5   +   6   +
e|--------------------------------------------------|--------------------------------------------------|
B|--------------0---------------------------0-------|--------------0---------------------------0-------|
G|----------------------------------3---------------|----------------------------------3---------------|
D|--------------------------------------------------|--------------------------------------------------|
A|--------------------------------------------------|--------------------------------------------------|
E|--0-----------------------2-----------------------|--0-----------------------2-----------------------|

    1   +   2   +   3   +   4   +   5   +   6   +      1   +   2   +   3   +   4   +   5   +   6   +
e|--------------------------------------------------|--------------------------------------------------|
B|------------------0-----------------------0-------|--------------0---------------------------0-------|
G|----------3-----------------------3---------------|----------------------------------3---------------|
D|--------------------------------------------------|--------------------------------------------------|
A|--------------------------1-----------------------|--------------------------------------------------|
E|--4-----------------------------------------------|--0-----------------------2-----------------------|

    1   +   2   +   3   +   4   +   5   +   6   +   7   +   8   +   9   +
e|--------------------------------------------------------------------------|
B|--------------0---------------------------0-----------------------0-------|
G|----------------------------------3-----------------------3---------------|
D|--------------------------------------------------------------------------|
A|--------------------------------------------------------------------------|
E|--0-----------------------2-----------------------4-----------------------|

    1   +   2   +   3   +   4   +   5   +   6   +      1   +   2   +   3   +   4   +   5   +   6   +
e|--------------------------------------------------|--------------------------------------------------|
B|--------------0---------------------------0-------|--------------0---------------------------0-------|
G|----------------------------------3---------------|----------------------------------3---------------|
D|--------------------------------------------------|--------------------------------------------------|
A|--------------------------------------------------|--------------------------------------------------|
E|--0-----------------------2-----------------------|--0-----------------------2-----------------------|

    1   +   2   +   3   +   4   +   5   +   6   +      1   +   2   +   3   +   4   +   5   +   6   +
e|--------------------------------------------------|--------------------------------------------------|
B|------------------0-----------------------0-------|--------------------------------------------------|
G|----------3-----------------------3---------------|--------------------------------------------------|
D|--------------------------------------------------|----------------------------------4-------3-------|
A|--------------------------1-----------------------|--2-----------------------4-----------------------|
E|--4-----------------------------------------------|--------------2-----------------------------------|

    1   +   2   +   3   +   4   +   5   +   6   +   7   +   8   +   9   +
e|--------------------------------------------------------------------------|
B|--------------------------------------------------------------------------|
G|--------------------------------------------------------------------------|
D|--------------------------------------------------1-------3-------4-------|
A|--2-----------------------4-----------------------------------------------|
E|--------------------------------------------------------------------------|

    1   +   2   +   3   +   4   +   5   +   6   +
e|--------------------------------------------------|
B|--------------------------------------------------|
G|--------------------------------------------------|
D|----------------------------------4-------3-------|
A|--2-----------------------4-----------------------|
E|--------------2-----------------------------------|

    1   +   2   +   3   +   4   +   5   +   6   +   7   +   8   +   9   +
e|--------------------------------------------------------------------------|
B|--------------------------------------------------------------------------|
G|----------4-------3-------1-----------------------------------------------|
D|--------------------------------------------------1-----------------------|
A|--2-----------------------------------4-----------------------------------|
E|--------------------------------------------------------------------------|

    1   +   2   +   3   +   4   +   5   +   6   +
e|--r---7---6-4-----4---6---4-----------------------|
B|--------------7---------------5-------------------|
G|----------------------------------4---------------|
D|--------------------------------------------------|
A|--------------------------------------------------|
E|--------------------------------------------------|

    1   +   2   +   3   +   4   +   5   +   6   +   7   +   8   +   9   +
e|------7---6-4-----4---6---4---11--9-----7-6-7---9-----7-------------------|
B|--------------7-----------------------------------------------------------|
G|--------------------------------------------------------------------------|
D|--------------------------------------------------------------------------|
A|--------------------------------------------------------------------------|
E|--------------------------------------------------------------------------|

    1   +   2   +   3   +   4   +   5   +   6   +      1   +   2   +   3   +   4   +   5   +   6   +
e|--r---7---6-4-----4---6---4-----------------------|--r---7---6-4-----4---6---4---11--9---11--12------|
B|--------------7---------------5-------------------|--------------7-----------------------------------|
G|----------------------------------4---------------|--------------------------------------------------|
D|--------------------------------------------------|--------------------------------------------------|
A|--------------------------------------------------|--------------------------------------------------|
E|--------------------------------------------------|--------------------------------------------------|

    1   +   2   +   3   +   4   +   5   +   6   +      1   +   2   +   3   +   4   +   5   +   6   +
e|-111214-------------------------------------------|--------------------------------------------------|
B|------12------11------11--13----------------------|--------------------------------------------------|
G|----------------------------------11--------------|--------------------------------------------------|
D|--------------------------------------------------|------------------------------------------131413--|
A|--------------------------------------------------|-----------13----------13-14-16-14-13-1416------13|
E|--------------------------------------------------|--12-14-16----16-14-16----------------------------|

    1   +   2   +   3   +   4   +   5   +   6   +   7   +   8   +   9   +
e|--------------------------------------------------------------------------|
B|--------------------------------------------------------------------------|
G|---------13----------13-15--16--15--13----------------20--18--16----------|
D|--1314-16--16-14-16-------------------16--14----13--------------20--18--16|
A|--------------------------------------------------------------------------|
E|--------------------------------------------------------------------------|

    1   +   2   +   3   +   4   +   5   +   6   +      1   +   2   +   3   +   4   +   5   +   6   +
e|--------------------------------------------------|---------16-------16-18---19--18--16--------------|
B|------------------------------------------161716--|--1617-19--19-1719--------------------19--17--16--|
G|-----------15----------15-16-18-161516-18-------18|--------------------------------------------------|
D|--14-16-18----18-16-18----------------------------|--------------------------------------------------|
A|--------------------------------------------------|--------------------------------------------------|
E|--------------------------------------------------|--------------------------------------------------|

    1   +   2   +   3   +   4   +   5   +   6   +      1   +   2   +   3   +   4   +   5   +   6   +
e|--23--21--19--------------------------------------|--------------------------------------------------|
B|--------------23--21--19--------------------------|------------------0-------0-----------------------|
G|--------------------------21--20--18--------------|----------------------------------3---------------|
D|--------------------------------------21--20--16--|----------4-------------------------------4-------|
A|--------------------------------------------------|--------------------------------------------------|
E|--------------------------------------------------|--4-----------------------------------------------|

    1   +   2   +   3   +   4   +   5   +   6   +      1   +   2   +   3   +   4   +   5   +   6   +
e|--------------------------------------------------|--------------------------------------------------|
B|------------------0-------0-----------------------|------------------0-------0-----------------------|
G|----------------------------------3---------------|----------------------------------3---------------|
D|----------4-------------------------------4-------|----------4-------------------------------4-------|
A|--------------------------------------------------|--2-----------------------------------------------|
E|--4-----------------------------------------------|--------------------------------------------------|

    1   +   2   +   3   +   4   +   5   +   6   +      1   +   2   +   3   +   4   +   5   +   6   +
e|--------------------------------------------------|--------------------------------------------------|
B|------------------0-------0-----------------------|------------------0-------0-----------------------|
G|----------------------------------3---------------|----------------------------------3---------------|
D|----------4-------------------------------4-------|----------4-------------------------------4-------|
A|--2-----------------------------------------------|--------------------------------------------------|
E|--------------------------------------------------|--2-----------------------------------------------|

    1   +   2   +   3   +   4   +   5   +   6   +      1   +   2   +   3   +   4   +   5   +   6   +
e|--------------------------------------------------|--------------------------------------------------|
B|------------------0-------0-----------------------|------------------0-------0-----------------------|
G|----------------------------------3---------------|----------------------------------3---------------|
D|----------4-------------------------------4-------|----------4-------------------------------4-------|
A|--------------------------------------------------|--------------------------------------------------|
E|--2-----------------------------------------------|--0-----------------------------------------------|

    1   +   2   +   3   +   4   +   5   +   6   +      1   +   2   +   3   +   4   +   5   +   6   +
e|--------------------------------------------------|--------------------------------------------------|
B|------------------0-------0-----------------------|------------------0-------0-----------------------|
G|----------------------------------3---------------|----------------------------------3---------------|
D|----------4-------------------------------4-------|----------4-------------------------------4-------|
A|--------------------------------------------------|--------------------------------------------------|
E|--0-----------------------------------------------|--4-----------------------------------------------|

    1   +   2   +   3   +   4   +   5   +   6   +      1   +   2   +   3   +   4   +   5   +   6   +
e|--------------------------------------------------|--------------------------------------------------|
B|------------------0-------0-----------------------|--------------------------------------------------|
G|----------------------------------3---------------|------------------6-------6-----------------------|
D|----------4-------------------------------4-------|--------------------------------------------------|
A|--------------------------------------------------|----------9-----------------------9---------------|
E|--4-----------------------------------------------|--6---------------------------------------6-------|

    1   +   2   +   3   +   4   +   5   +   6   +      1   +   2   +   3   +   4   +   5   +   6   +
e|--------------------------0-----------------------|--------------------------------------------------|
B|----------------------------------0---------------|------------------0-------0-----------------------|
G|------------------8-----------------------8-------|----------------------------------3---------------|
D|--------------------------------------------------|----------4-------------------------------4-------|
A|----------9---------------------------------------|--------------------------------------------------|
E|--7-----------------------------------------------|--0-----------------------------------------------|

    1   +   2   +   3   +   4   +   5   +   6   +      1   +   2   +   3   +   4   +   5   +   6   +
e|-------------------------------------------------|---------------------------------------------------|
B|------------------0-----------------------0------|-------------------0-------0-----------------------|
G|-------------------------------------------------|-----------------------------------3---------------|
D|----------4-----------------------4--------------|-----------4-------------------------------4-------|
A|-------------------------------------------------|---------------------------------------------------|
E|--0-----------------------2----------------------|--0------------------------------------------------|

    1   +   2   +   3   +   4   +   5   +   6   +      1   +   2   +   3   +   4   +   5   +   6   +
e|--------------------------------------------------|--7-----------9-----------10----------9-----------|
B|------------------0-----------------------0-------|------8-----------8-----------8-----------8-------|
G|--------------------------------------------------|----------7-----------7-----------7-----------7---|
D|----------4-----------------------4---------------|--------------------------------------------------|
A|--------------------------------------------------|--------------------------------------------------|
E|--0-----------------------2-----------------------|--------------------------------------------------|

    1   +   2   +   3   +   4   +   5   +   6   +      1   +   2   +   3   +   4   +   5   +   6   +
e|--7-------9-------10------12------10------9-------|--7-----------9-----------10----------9-----------|
B|------8-------8-------8-------10------10------10--|------8-----------8-----------8-----------8-------|
G|--------------------------------------------------|----------7-----------7-----------7-----------7---|
D|--------------------------------------------------|--------------------------------------------------|
A|--------------------------------------------------|--------------------------------------------------|
E|--------------------------------------------------|--------------------------------------------------|

    1   +   2   +   3   +   4   +   5   +   6   +      1   +   2   +   3   +   4   +   5   +   6   +
e|--7-------9---10------14--12------10------9-------|--10----------12----------13----------12----------|
B|------8-----------8-----------10------10------10--|------11----------11----------11----------11------|
G|--------------------------------------------------|----------10----------10----------10----------10--|
D|--------------------------------------------------|--------------------------------------------------|
A|--------------------------------------------------|--------------------------------------------------|
E|--------------------------------------------------|--------------------------------------------------|

    1   +   2   +   3   +   4   +   5   +   6   +      1   +   2   +   3   +   4   +   5   +   6   +
e|--10------12------13------15------13------12------|--10----------12----------13----------12----------|
B|------11------11------11------13------13------13--|------11----------11----------11----------11------|
G|--------------------------------------------------|----------10----------10----------10----------10--|
D|--------------------------------------------------|--------------------------------------------------|
A|--------------------------------------------------|--------------------------------------------------|
E|--------------------------------------------------|--------------------------------------------------|

    1   +   2   +   3   +   4   +   5   +   6   +      1   +   2   +   3   +   4   +   5   +   6   +
e|--10------15--17------18--20------18--17--15------|--------------------------------------------------|
B|------11------------------------------------------|--18--16--15--------------------------------------|
G|------------------15----------17--------------17--|--------------------------------------------------|
D|--------------------------------------------------|--------------15--13--12--15--13--12--------------|
A|--------------------------------------------------|--------------------------------------------------|
E|--------------------------------------------------|--------------------------------------13--11--10--|

    1   +   2   +   3   +   4      1   +   2   +   3   +   4   +   5   +
e|------------------------------|------------------------------------------|
B|------------------------------|------------------------------------------|
G|------------------------------|------------------------------------------|
D|--129-------------------------|--5-------r---5-------5-------5-------r---|
A|------11101113108-------------|--3-------r---3-------3-------3-------r---|
E|-----------------109-101210873|------------------------------------------|

    1   +   2   +   3   +   4   +      1   +   2   +   3   +   4   +   5   +
e|----------------------------------|------------------------------------------|
B|----------------------------------|------------------------------------------|
G|----------------------------------|------------------------------------------|
D|--5-------r---5-------5-------r---|--5-------r---5-------5-------5-------r---|
A|--3-------r---3-------3-------r---|--3-------r---3-------3-------3-------r---|
E|----------------------------------|------------------------------------------|

    1   +   2   +   3   +   4   +      1   +   2   +   3   +   4   +   5   +
e|----------------------------------|------------------------------------------|
B|----------------------------------|------------------------------------------|
G|----------------------------------|------------------------------------------|
D|--5-------r---5-------5-------r---|--5-------r---5-------5-------5--------r--|
A|--3-------r---3-------3-------r---|--3-------r---3-------3-------3--------r--|
E|----------------------------------|------------------------------------------|

    1   +   2   +   3   +   4   +      1   +   2   +   3   +   4   +   5   +
e|----------------------------------|------------------------------------------|
B|----------------------------------|------------------------------------------|
G|----------------------------------|------------------------------------------|
D|--5-------r---5-------5-------r---|--5-------r---5-------5-------5-------r---|
A|--3-------r---3-------3-------r---|--3-------r---3-------3-------3-------r---|
E|----------------------------------|------------------------------------------|

    1   +   2   +   3   +   4   +      1   +   2   +   3   +   4   +   5   +
e|----------------------------------|------------------------------------------|
B|----------------------------------|------------------------------------------|
G|----------------------------------|------------------------------------------|
D|--5-------r---5-------5-------r---|--5-----------5-------5-------5-----------|
A|--3-------r---3-------3-------r---|--3---3---3---3---3---3---3---3---3---3---|
E|----------------------------------|------------------------------------------|

    1   +   2   +   3   +   4   +      1   +   2   +   3   +   4   +   5   +
e|----------------------------------|------------------------------------------|
B|----------------------------------|------------------------------------------|
G|----------------------------------|------------------------------------------|
D|--5-----------5-------5-----------|--5-----------5-------5-------5-----------|
A|--3---3---3---3---3---3---3---3---|--3---3---3---3---3---3---3---3---3---3---|
E|----------------------------------|------------------------------------------|

    1   +   2   +   3   +   4   +      1   +   2   +   3   +   4   +   5   +
e|----------------------------------|------------------------------------------|
B|----------------------------------|------------------------------------------|
G|----------------------------------|------------------------------------------|
D|--5-----------5-------5-----------|--5-----------5-------5-------5-----------|
A|--3---3---3---3---3---3---3---3---|--3---3---3---3---3---3---3---3---3---3---|
E|----------------------------------|------------------------------------------|

    1   +   2   +   3   +   4   +      1   +   2   +   3   +   4   +   5   +
e|----------------------------------|------------------------------------------|
B|----------------------------------|------------------------------------------|
G|----------------------------------|------------------------------------------|
D|--5-----------5-------5-----------|--5-----------5-------5-------5-----------|
A|--3---3---3---3---3---3---3---3---|--3---3---3---3---3---3---3---3---3---3---|
E|----------------------------------|------------------------------------------|

    1   +   2   +   3   +   4   +      1   +   2   +   3   +   4   +   5   +
e|----------------------------------|------------------------------------------|
B|----------------------------------|------------------------------------------|
G|----------------------------------|------------------------------------------|
D|--5-----------5-------5-----------|--5-----------5-------5-------5-----------|
A|--3---3---3---3---3---3---3---3---|--3---3---3---3---3---3---3---3---3---3---|
E|----------------------------------|------------------------------------------|

    1   +   2   +   3   +   4   +      1   +   2   +   3   +   4   +   5   +
e|----------------------------------|------------------------------------------|
B|----------------------------------|------------------------------------------|
G|----------------------------------|--------------------------4---7---5-------|
D|--5-----------5-------5-----------|----------5---4---7---6---------------5---|
A|--3---3---3---3---3---3---3---3---|--3---6-----------------------------------|
E|----------------------------------|------------------------------------------|
 
    1   +   2   +   3   +   4   +      1   +   2   +   3   +   4   +   5   +
e|----------------------------------|------------------------------------------|
B|----------------------------------|------------------------------------------|
G|----------------------------------|--------------------------4---7---5-------|
D|--8---7---4---6---3---5-----------|----------5---4---7---6---------------5---|
A|--------------------------6---5---|--3---6-----------------------------------|
E|----------------------------------|------------------------------------------|

    1   +   2   +   3   +   4   +      1   +   2   +   3   +   4   +   5   +
e|----------------------------------|------------------------------------------|
B|----------------------------------|------------------------------------------|
G|----------------------------------|--------------------------4---7---5-------|
D|--8---7---4---6---3---5-----------|----------5---4---7---6---------------5---|
A|--------------------------6---5---|--3---6-----------------------------------|
E|----------------------------------|------------------------------------------|

    1   +   2   +   3   +   4   +      1   +   2   +   3   +   4   +   5   +
e|----------------------------------|------------------------------------------|
B|----------------------------------|------------------------------------------|
G|----------------------------------|--------------------------4---7---5-------|
D|--8---7---4---6---3---5-----------|----------5---4---7---6---------------5---|
A|--------------------------6---5---|--3---6-----------------------------------|
E|----------------------------------|------------------------------------------|


    1   +   2   +   3   +   4   +      1   +   2   +   3   +
e|----------------------------------|--------------------------|
B|----------------------------------|--------------------------|
G|----------------------------------|--------------------------|
D|--8---7---4---6---3---5-----------|--------------------------|
A|--------------------------6---5---|--3-------r---------------|
E|----------------------------------|--------------------------|

    1   +   2   +   3   +   4   +   5   +      1   +   2   +   3   +   4   +
e|------------------------------------------|----------------------------------|
B|------------------------------------------|----------------------------------|
G|------------------------------------------|----------------------------------|
D|--9-----------9-------9-------9-----------|--9-----------9-------9-----------|
A|--7-----------7-------7-------7-----------|--7-----------7-------7-----------|
E|------0-0-0-------0-------0-------0-0-0---|------0---0-------0-------0-0-0---|

    1   +   2   +   3   +   4   +   5   +      1   +   2   +   3   +   4   +
e|------------------------------------------|----------------------------------|
B|------------------------------------------|----------------------------------|
G|------------------------------------------|----------------------------------|
D|--10----------10------10------10----------|--10----------10------10----------|
A|--7-----------7-------7-------7-----------|--7-----------7-------7-----------|
E|------0---0-------0-------0-------0-0-0---|------0---0-------0-------0-0-0---|

    1   +   2   +   3   +   4   +   5   +      1   +   2   +   3   +   4   +
e|------------------------------------------|----------------------------------|
B|------------------------------------------|----------------------------------|
G|------------------------------------------|----------------------------------|
D|--6-----------6-------6-------6-----------|--6-----------6-------6-----------|
A|--7-----------7-------7-------7-----------|--7-----------7-------7-----------|
E|------0---0-------0-------0-------0-0-0---|------0---0-------0-------0-0-0---|

    1   +   2   +   3   +   4   +      1   +   2   +   3   +   4   +
e|----------------------------------|----------------------------------|
B|----------------------------------|----------------------------------|
G|----------------------------------|----------------------------------|
D|--8-----------8-------8-----------|--7-----------7-------7-----------|
A|--7-----------7-------7-----------|--7-----------7-------7-----------|
E|------0---0-------0-------0-0-0---|------0---0-------0-------0-0-0---|

    1   +   2   +   3   +   4   +   5   +      1   +   2   +   3   +   4   +
e|------------------------------------------|----------------------------------|
B|------------------------------------------|----------------------------------|
G|------------------------------------------|----------------------------------|
D|--9-----------9-------9-------9-----------|--9-----------9-------9-----------|
A|--7-----------7-------7-------7-----------|--7-----------7-------7-----------|
E|------0---0-------0-------0-------0-0-0---|------0---0-------0-------0-0-0---|

    1   +   2   +   3   +   4   +   5   +      1   +   2   +   3   +   4   +
e|------------------------------------------|----------------------------------|
B|------------------------------------------|----------------------------------|
G|------------------------------------------|----------------------------------|
D|--12----------12------12------12----------|--12----------12------12----------|
A|--7-----------7-------7-------7-----------|--7-----------7-------7-----------|
E|------0---0-------0-------0--------0-0-0--|------0---0-------0-------0-0-0---|

    1   +   2   +   3   +   4   +   5   +      1   +   2   +   3   +   4   +
e|------------------------------------------|----------------------------------|
B|------------------------------------------|----------------------------------|
G|------------------------------------------|----------------------------------|
D|--11----------11------11------11----------|--10----------10------10----------|
A|--7-----------7-------7-------7-----------|--7-----------7-------7-----------|
E|------0---0-------0-------0-------0-0-0---|------0---0-------0-------0-0-0---|

    1   +   2   +   3   +   4   +      1   +   2   +   3   +   4   +
e|----------------------------------|----------------------------------|
B|----------------------------------|----------------------------------|
G|----------------------------------|----------------------------------|
D|--10----------10------10----------|--4---------------3---------------|
A|--8-----------8-------8-----------|--2---------------1-------4---5---|
E|------0---0-------0-------0-0-0---|------0-0-0---0-------0---2---3---|

    1   +   2   +   3   +   4   +      1   +   2   +   3   +   4   +
e|----------------------------------|----------------------------------|
B|----------------------------------|----------------------------------|
G|----------------------------------|----------------------------------|
D|----------------------------------|----------------------------------|
A|--7---------------4-------4---5---|--2-----------2-----------9---10--|
E|--5---0-0-0---0---2---0---2---3---|--0---0-0-0---0---0-0-0---7---8---|

    1   +   2   +   3   +   4   +   5   +      1   +   2   +   3   +   4   +
e|------------------------------------------|----------------------------------|
B|------------------------------------------|----------------------------------|
G|------------------------------------------|----------------------------------|
D|--9-----------9-------9-------9-----------|--9-----------9-------9-----------|
A|--7-----------7-------7-------7-----------|--7-----------7-------7-----------|
E|------0-0-0-------0-------0-------0-0-0---|------0---0-------0-------0-0-0---|

    1   +   2   +   3   +   4   +   5   +      1   +   2   +   3   +   4   +
e|------------------------------------------|----------------------------------|
B|------------------------------------------|----------------------------------|
G|------------------------------------------|----------------------------------|
D|--10----------10------10------10----------|--10----------10------10----------|
A|--7-----------7-------7-------7-----------|--7-----------7-------7-----------|
E|------0---0-------0-------0-------0-0-0---|------0---0-------0-------0-0-0---|

    1   +   2   +   3   +   4   +   5   +      1   +   2   +   3   +   4   +
e|------------------------------------------|----------------------------------|
B|------------------------------------------|----------------------------------|
G|------------------------------------------|----------------------------------|
D|--6-----------6-------6-------6-----------|--6-----------6-------6-----------|
A|--7-----------7-------7-------7-----------|--7-----------7-------7-----------|
E|------0---0-------0-------0-------0-0-0---|------0---0-------0-------0-0-0---|

    1   +   2   +   3   +   4   +      1   +   2   +   3   +   4   +
e|----------------------------------|----------------------------------|
B|----------------------------------|----------------------------------|
G|----------------------------------|----------------------------------|
D|--8-----------8-------8-----------|--7-----------7-------7-----------|
A|--7-----------7-------7-----------|--7-----------7-------7-----------|
E|------0---0-------0-------0-0-0---|------0---0-------0-------0-0-0---|

    1   +   2   +   3   +   4   +   5   +      1   +   2   +   3   +   4   +
e|------------------------------------------|----------------------------------|
B|------------------------------------------|----------------------------------|
G|------------------------------------------|----------------------------------|
D|--9-----------9-------9-------9-----------|--9-----------9-------9-----------|
A|--7-----------7-------7-------7-----------|--7-----------7-------7-----------|
E|------0---0-------0-------0-------0-0-0---|------0---0-------0-------0-0-0---|
 
    1   +   2   +   3   +   4   +   5   +      1   +   2   +   3   +   4   +
e|------------------------------------------|----------------------------------|
B|------------------------------------------|----------------------------------|
G|------------------------------------------|----------------------------------|
D|--12----------12------12------12----------|--12----------12------12----------|
A|--7-----------7-------7-------7-----------|--7-----------7-------7-----------|
E|------0---0-------0-------0-------0-0-0---|------0---0-------0-------0-0-0---|

    1   +   2   +   3   +   4   +   5   +      1   +   2   +   3   +   4   +
e|------------------------------------------|----------------------------------|
B|------------------------------------------|----------------------------------|
G|------------------------------------------|----------------------------------|
D|--11----------11------11------11----------|--11----------11------11----------|
A|--7-----------7-------7-------7-----------|--7-----------7-------7-----------|
E|------0---0-------0-------0-------0-0-0---|------0---0-------0-------0-0-0---|

    1   +   2   +   3   +   4   +      1   +   2   +   3   +   4   +
e|----------------------------------|----------------------------------|
B|----------------------------------|----------------------------------|
G|----------------------------------|----------------------------------|
D|--10----------10------10----------|--10----------10------10----------|
A|--7-----------7-------7-----------|--8-----------8-------8-----------|
E|------0---0-------0-------0-0-0---|------0---0-------0-------0-0-0---|

    1   +   2   +   3   +   4   +      1   +   2   +   3   +   4   +
e|----------------------------------|----------------------------------|
B|----------------------------------|----------------------------------|
G|----------------------------------|----------------------------------|
D|--------------4-------------------|----------------------------------|
A|--------------2-------------------|----------------------------------|
E|--0---2---3---------------3---2---|--0-0-0---0---0---0-0-0---0-0-0---|

    1   +   2   +   3   +   4   +      1   +   2   +   3   +   4   +
e|----------------------------------|----------------------------------|
B|----------------------------------|----------------------------------|
G|----------------------------------|----------------------------------|
D|--------------5-------------------|----------------------------------|
A|--------------3-------------------|----------------------------------|
E|--0---2---3---------------3---2---|--0-0-0---0---0---0-0-0---0-0-0---|

    1   +   2   +   3   +   4   +      1   +   2   +   3   +   4   +
e|----------------------------------|----------------------------------|
B|----------------------------------|----------------------------------|
G|----------------------------------|----------------------------------|
D|--------------9-------------------|----------------------------------|
A|--------------7-------------------|----------------------------------|
E|--0---2---3---------------3---2---|--0-0-0---0---0---0-0-0---0-0-0---|

    1   +   2   +   3   +   4   +      1   +   2   +   3   +   4   +
e|----------------------------------|----------------------------------|
B|----------------------------------|----------------------------------|
G|----------------------------------|----------------------------------|
D|--------------3-------------------|--------------2-------------------|
A|--------------1-------------------|--------------0-------------------|
E|--0---2---3---------------3---2---|--0---2---3---------------3---2---|

    1   +   2   +   3   +   4   +      1   +   2   +   3   +   4   +
e|----------------------------------|----------------------------------|
B|----------------------------------|----------------------------------|
G|----------------------------------|----------------------------------|
D|--------------4-------------------|----------------------------------|
A|--------------2-------------------|----------------------------------|
E|--0---2---3---------------3---2---|--0-0-0---0---0---0-0-0---0-0-0---|

    1   +   2   +   3   +   4   +      1   +   2   +   3   +   4   +
e|----------------------------------|----------------------------------|
B|----------------------------------|----------------------------------|
G|----------------------------------|----------------------------------|
D|--------------7-------------------|----------------------------------|
A|--------------5-------------------|----------------------------------|
E|--0---2---3---------------3---2---|--0-0-0---0---0---0-0-0---0-0-0---|

    1   +   2   +   3   +   4   +      1   +   2   +   3   +   4   +
e|----------------------------------|----------------------------------|
B|----------------------------------|----------------------------------|
G|----------------------------------|----------------------------------|
D|--------------7-------------------|----------------------------------|
A|--------------4-------------------|----------------------------------|
E|--0---2---3---------------3---2---|--0-0-0---0---0---0-0-0---0-0-0---|

    1   +   2   +   3   +   4   +      1   +   2   +   3   +   4   +
e|----------------------------------|----------------------------------|
B|----------------------------------|----------------------------------|
G|----------------------------------|----------------------------------|
D|--------------5-------------------|--------------3-------------------|
A|--------------3-------------------|--------------1-------------------|
E|--0---2---3---------------3---2---|--0---2---3---------------3---2---|

    1   +   2   +   3   +   4   +      1   +   2   +   3   +   4   +
e|----------------------------------|----------------------------------|
B|----------------------------------|----------------------------------|
G|----------------------------------|----------------------------------|
D|--4---------------3---------------|----------------------------------|
A|--2---------------1-------4---5---|--7---------------4-------4---5---|
E|------0-0-0---0-------0---2---3---|--5---0-0-0---0---2---0---2---3---|

    1   +   2   +   3   +   4   +      1   +   2   +   3   +   4   +   5   +
e|----------------------------------|------------------------------------------|
B|----------------------------------|------------------------------------------|
G|----------------------------------|------------------------------------------|
D|----------------------------------|--9-----------9-------9-------9-----------|
A|--2-----------2-----------9---10--|--8-----------7-------7-------7-----------|
E|--0---0-0-0---0---0-0-0---7---8---|------0-0-0-------0-------0-------0-0-0---|

    1   +   2   +   3   +   4   +      1   +   2   +   3   +   4   +   5   +
e|----------------------------------|------------------------------------------|
B|----------------------------------|------------------------------------------|
G|----------------------------------|------------------------------------------|
D|--9-----------9-------9-----------|--10----------10------10------10----------|
A|--7-----------7-------7-----------|--7-----------7-------7-------7-----------|
E|------0---0-------0-------0-0-0---|------0---0-------0-------0-------0-0-0---|

    1   +   2   +   3   +   4   +      1   +   2   +   3   +   4   +   5   +
e|----------------------------------|------------------------------------------|
B|----------------------------------|------------------------------------------|
G|----------------------------------|------------------------------------------|
D|--9-----------9-------9-----------|--10----------10------10------10----------|
A|--7-----------7-------7-----------|--7-----------7-------7-------7-----------|
E|------0---0-------0-------0-0-0---|------0---0-------0-------0-------0-0-0---|

    1   +   2   +   3   +   4   +      1   +   2   +   3   +   4   +   5   +
e|----------------------------------|------------------------------------------|
B|----------------------------------|------------------------------------------|
G|----------------------------------|------------------------------------------|
D|--10----------10------10----------|--6-----------6-------6-------6-----------|
A|--7-----------7-------7-----------|--7-----------7-------7-------7-----------|
E|------0---0-------0-------0-0-0---|------0---0-------0-------0-------0-0-0---|

    1   +   2   +   3   +   4   +      1   +   2   +   3   +   4   +
e|----------------------------------|----------------------------------|
B|----------------------------------|----------------------------------|
G|----------------------------------|----------------------------------|
D|--6-----------6-------6-----------|--8-----------8-------8-----------|
A|--7-----------7-------7-----------|--7-----------7-------7-----------|
E|------0---0-------0-------0-0-0---|------0---0-------0-------0-0-0---|

    1   +   2   +   3   +   4   +      1   +   2   +   3   +   4   +   5   +
e|----------------------------------|------------------------------------------|
B|----------------------------------|------------------------------------------|
G|----------------------------------|------------------------------------------|
D|--7-----------7-------7-----------|--9-----------9-------9-------9-----------|
A|--7-----------7-------7-----------|--7-----------7-------7-------7-----------|
E|------0---0-------0-------0-0-0---|------0---0-------0-------0-------0-0-0---|

    1   +   2   +   3   +   4   +      1   +   2   +   3   +   4   +   5   +
e|----------------------------------|------------------------------------------|
B|----------------------------------|------------------------------------------|
G|----------------------------------|------------------------------------------|
D|--9-----------9-------9-----------|--12----------12------12------12----------|
A|--7-----------7-------7-----------|--7-----------7-------7-------7-----------|
E|------0---0-------0-------0-0-0---|------0---0-------0-------0-------0-0-0---|

    1   +   2   +   3   +   4   +      1   +   2   +   3   +   4   +   5   +
e|----------------------------------|------------------------------------------|
B|----------------------------------|------------------------------------------|
G|----------------------------------|------------------------------------------|
D|--12----------12------12----------|--11----------11------11------11----------|
A|--7-----------7-------7-----------|--7-----------7-------7-------7-----------|
E|------0---0-------0-------0-0-0---|------0---0-------0-------0-------0-0-0---|

    1   +   2   +   3   +   4   +      1   +   2   +   3   +   4   +
e|----------------------------------|----------------------------------|
B|----------------------------------|----------------------------------|
G|----------------------------------|----------------------------------|
D|--11----------11------11----------|--10----------10------10----------|
A|--7-----------7-------7-----------|--7-----------7-------7-----------|
E|------0---0-------0-------0-0-0---|------0---0-------0-------0-0-0---|

    1   +   2   +   3   +   4   +      1   +   2   +   3   +   4   +
e|----------------------------------|----------------------------------|
B|----------------------------------|----------------------------------|
G|----------------------------------|----------------------------------|
D|--10----------10------10----------|------------------------------7---|
A|--8-----------8-------8-----------|----------------------4-------5---|
E|------0---0-------0-------0-0-0---|--3---6---3---5-------------------|

    1   +   2   +   3   +   4   +      1   +   2   +   3   +   4   +
e|----------------------------------|----------------------------------|
B|----------------------------------|----------------------------------|
G|----------------------------------|----------------------------------|
D|------------------7---8---8-------|------------------------------7---|
A|------5---5---5---5---6---6-------|----------------------6-------5---|
E|----------------------------------|--3---6---3---5-------------------|

    1   +   2   +   3   +   4   +      1   +   2   +   3   +   4   +
e|----------------------------------|----------------------------------|
B|----------------------------------|----------------------------------|
G|----------------------------------|----------------------------------|
D|----------------------------------|------------------------------7---|
A|----------6---------------6-------|----------------------4-------5---|
E|------4---4-------4---4---4-------|--3---6---3---5-------------------|

    1   +   2   +   3   +   4   +      1   +   2   +   3   +   4   +
e|----------------------------------|----------------------------------|
B|----------------------------------|----------------------------------|
G|----------------------------------|----------------------------------|
D|------------------7---6-----------|----------------------5-------4---|
A|------5---5---5---5---4---8-------|----------------------------------|
E|--------------------------6-------|--3---6---3---5-------------------|

    1   +   2   +   3   +   4   +      1   +   2   +   3   +   4   +
e|----------------------------------|----------------------------------|
B|----------------------------------|----------------------------------|
G|----------------------------------|----------------------------------|
D|----------------------------------|------------------------------7---|
A|------6---5-----------7---6-------|----------------------4-------5---|
E|------------------3---5---4-------|--3---6---3---5-------------------|

    1   +   2   +   3   +   4   +      1   +   2   +   3   +   4   +
e|----------------------------------|----------------------------------|
B|----------------------------------|----------------------------------|
G|----------------------------------|----------------------------------|
D|------------------7---8---8-------|------------------------------7---|
A|------5---5---5---5---6---6-------|----------------------6-------5---|
E|----------------------------------|--3---6---3---5-------------------|

    1   +   2   +   3   +   4   +      1   +   2   +   3   +   4   +
e|----------------------------------|----------------------------------|
B|----------------------------------|----------------------------------|
G|----------------------------------|----------------------------------|
D|----------------------------------|------------------------------7---|
A|----------6---------------6-------|----------------------4-------5---|
E|------4---4-------4---4---4-------|--3---6---3---5-------------------|

    1   +   2   +   3   +   4   +      1   +   2   +   3   +   4   +
e|----------------------------------|----------------------------------|
B|----------------------------------|----------------------------------|
G|----------------------------------|----------------------------------|
D|------------------7---6-----------|----------------------5-------4---|
A|------5---5---5---5---4---8-------|----------------------------------|
E|--------------------------6-------|--3---6---3---5-------------------|

    1   +   2   +   3   +   4   +      1   +   2   +   3   +   4   +
e|----------------------------------|----------------------------------|
B|----------------------------------|----------------------------------|
G|----------------------------------|----------------------------------|
D|----------------------------------|------------------------------5---|
A|------6---5----------7---6--------|--5-------r---5-------r---5---5---|
E|-----------------3---5---4--------|--3-------r---3-------r---3---3---|

    1   +   2   +   3   +   4   +      1   +   2   +   3   +   4   +
e|----------------------------------|----------------------------------|
B|----------------------------------|----------------------------------|
G|----------5---5---5---5---5---5---|--5---5---5---5---5---5---5-------|
D|----------5---5---5---5---5---5---|--5---5---5---5---5---5---5---8---|
A|----------3---3---3---3---3---3---|--3---3---3---3---3---3---3---6---|
E|----------------------------------|------------------------------6---|

    1   +   2   +   3   +   4   +      1   +   2   +   3   +   4   +
e|----------------------------------|----------------------------------|
B|----------------------------------|----------------------------------|
G|----------------------------------|----------------------------------|
D|--8---8---8---8---8---8---8---8---|--8---8---8---8---8---8---8---6---|
A|--6---6---6---6---6---6---6---6---|--6---6---6---6---6---6---6---6---|
E|--6---6---6---6---6---6---6---6---|--6---6---6---6---6---6---6---4---|

    1   +   2   +   3   +   4   +      1   +   2   +   3   +   4   +
e|----------------------------------|----------------------------------|
B|----------------------------------|----------------------------------|
G|----------------------------------|----------------------------------|
D|--6---6---6---6---6---6---6---6---|--6---6---6---6---6---6---6---7---|
A|--6---6---6---6---6---6---6---6---|--6---6---6---6---6---6---6---6---|
E|--4---4---4---4---4---4---4---4---|--4---4---4---4---4---4---4---5---|

    1   +   2   +   3   +   4   +      1   +   2   +   3   +   4   +
e|----------------------------------|----------------------------------|
B|----------------------------------|----------------------------------|
G|----------------------------------|------------------------------5---|
D|--7---7---7---7---7---7---7---7---|--7---7---7---7---7---7---7---5---|
A|--6---6---6---6---6---6---6---6---|--6---6---6---6---6---6---6---3---|
E|--5---5---5---5---5---5---5---5---|--5---5---5---5---5---5---5-------|

    1   +   2   +   3   +   4   +      1   +   2   +   3   +   4   +
e|----------------------------------|----------------------------------|
B|----------------------------------|----------------------------------|
G|--5---5---5---5---5---5---5---5---|--5---5---5---5---5---5---5-------|
D|--5---5---5---5---5---5---5---5---|--5---5---5---5---5---5---5---8---|
A|--3---3---3---3---3---3---3---3---|--3---3---3---3---3---3---3---6---|
E|----------------------------------|------------------------------6---|

    1   +   2   +   3   +   4   +      1   +   2   +   3   +   4   +
e|----------------------------------|----------------------------------|
B|----------------------------------|----------------------------------|
G|----------------------------------|----------------------------------|
D|--8---8---8---8---8---8---8---8---|--8---8---8---8---8---8---8---6---|
A|--6---6---6---6---6---6---6---6---|--6---6---6---6---6---6---6---6---|
E|--6---6---6---6---6---6---6---6---|--6---6---6---6---6---6---6---4---|

    1   +   2   +   3   +   4   +      1   +   2   +   3   +   4   +
e|----------------------------------|----------------------------------|
B|----------------------------------|----------------------------------|
G|----------------------------------|----------------------------------|
D|--6---6---6---6---6---6---6---6---|--6---6---6---6---6---6---6-------|
A|--6---6---6---6---6---6---6---6---|--6---6---6---6---6---6---6-------|
E|--4---4---4---4---4---4---4---4---|--4---4---4---4---4---4---4---5---|

    1   +   2   +   3   +   4   +      1   +   2   +   3   +   4   +
e|----------------------------------|----------------------------------|
B|----------------------------------|----------------------------------| 
G|----------------------------------|------------------------------5---|
D|----------------------------------|------------------------------5---|
A|----------------------------------|--6---------------1-------2---3---|
E|----------2-----------1-----------|----------------------------------|

    1   +   2   +   3   +   4   +      1   +   2   +   3   +   4   +
e|----------------------------------|----------------------------------|
B|----------------------------------|----------------------------------|
G|----------5---5---5---5---5---5---|--5---5---5---5---5---5---5-------|
D|----------5---5---5---5---5---5---|--5---5---5---5---5---5---5---8---|
A|----------3---3---3---3---3---3---|--3---3---3---3---3---3---3---6---|
E|----------------------------------|------------------------------6---|

    1   +   2   +   3   +   4   +      1   +   2   +   3   +   4   +
e|----------------------------------|----------------------------------|
B|----------------------------------|----------------------------------|
G|----------------------------------|----------------------------------|
D|--8---8---8---8---8---8---8---8---|--8---8---8---8---8---8---8---8---|
A|--6---6---6---6---6---6---6---6---|--6---6---6---6---6---6---6---6---|
E|--6---6---6---6---6---6---6---6---|--6---6---6---6---6---6---6---6---|

    1   +   2   +   3   +   4   +      1   +   2   +   3   +   4   +
e|----------------------------------|----------------------------------|
B|----------------------------------|----------------------------------|
G|----------------------------------|----------------------------------|
D|--6---6---6---6---6---6---6---6---|--6---6---6---6---6---6---6---7---|
A|--6---6---6---6---6---6---6---6---|--6---6---6---6---6---6---6---6---|
E|--4---4---4---4---4---4---4---4---|--4---4---4---4---4---4---4---5---|

    1   +   2   +   3   +   4   +      1   +   2   +   3   +   4   +
e|----------------------------------|----------------------------------|
B|----------------------------------|----------------------------------|
G|----------------------------------|------------------------------5---|
D|--7---7---7---7---7---7---7---7---|--7---7---7---7---7---7---7---5---|
A|--6---6---6---6---6---6---6---6---|--6---6---6---6---6---6---6---3---|
E|--5---5---5---5---5---5---5---5---|--5---5---5---5---5---5---5-------|

    1   +   2   +   3   +   4   +      1   +   2   +   3   +   4   +
e|----------------------------------|----------------------------------|
B|----------------------------------|----------------------------------|
G|--5---5---5---5---5---5---5---5---|--5---5---5---5---5---5---5-------|
D|--5---5---5---5---5---5---5---5---|--5---5---5---5---5---5---5---8---|
A|--3---3---3---3---3---3---3---3---|--3---3---3---3---3---3---3---6---|
E|----------------------------------|------------------------------6---|

    1   +   2   +   3   +   4   +      1   +   2   +   3   +   4   +
e|----------------------------------|----------------------------------|
B|----------------------------------|----------------------------------|
G|----------------------------------|----------------------------------|
D|--8---8---8---8---8---8---8---8---|--8---8---8---8---8---8---8---6---|
A|--6---6---6---6---6---6---6---6---|--6---6---6---6---6---6---6---6---|
E|--6---6---6---6---6---6---6---6---|--6---6---6---6---6---6---6---4---|

    1   +   2   +   3   +   4   +      1   +   2   +   3   +   4   +
e|----------------------------------|----------------------------------|
B|----------------------------------|----------------------------------|
G|----------------------------------|----------------------------------|
D|--6---6---6---6---6---6---6---6---|--6---6---6---6---6---6---6---7---|
A|--6---6---6---6---6---6---6---6---|--6---6---6---6---6---6---6---6---|
E|--4---4---4---4---4---4---4---4---|--4---4---4---4---4---4---4---5---|

    1   +   2   +   3   +   4   +      1   +   2   +   3   +   4   +
e|----------------------------------|----------------------------------|
B|----------------------------------|----------------------------------|
G|----------------------------------|----------------------------------|
D|--7---7---7---7---7---7---7---7---|--7---7---7---7---7---------------|
A|--6---6---6---6---6---6---6---6---|--6---6---6---6---6---------------|
E|--5---5---5---5---5---5---5---5---|--5---5---5---5---5---------------|

    1   +   2   +   3   +   4   +   5   +   6   +
e|--------------------------------------------------|
B|--------------------------------------------------|
G|--------------------------------------------------|
D|--------------------------------------------------|
A|--3-----------------------6-----------------------|
E|--------------------------------------------------|

    1   +   2   +   3   +   4   +   5   +   6   +   7   +   8   +   9   +
e|---------------------------------------------------------------------------|
B|---------------------------------------------------------------------------|
G|---------------------------------------------------------------------------|
D|---------------------------------------------------------------------------|
A|---------------------------------------------------------------------------|
E|--2-------------------------------------------------------6----------------|

    1   +   2   +   3   +   4   +   5   +   6   +
e|--------------------------------------------------|
B|--------------------------------------------------|
G|--------------------------------------------------|
D|--------------------------------------------------|
A|--------------------------3-----------------------|
E|--1-----------------------------------------------|

    1   +   2   +   3   +   4   +   5   +   6   +   7   +   8   +   9   +
e|---------------------------------------------------------------------------|
B|---------------------------------------------------------------------------|
G|---------------------------------------------------------------------------|
D|------------------------------------------4-------4------------------------|
A|----------------------------------------------------------5-------4--------|
E|--4------------------------------------------------------------------------|

    1   +   2   +   3   +   4   +   5   +   6   +
e|--------------------------------------------------|
B|--------------------------------------------------|
G|--------------------------------------------------|
D|--------------------------------------------------|
A|--3-----------------------6-----------------------|
E|--------------------------------------------------|

    1   +   2   +   3   +   4   +   5   +   6   +   7   +   8   +   9   +
e|---------------------------------------------------------------------------|
B|---------------------------------------------------------------------------|
G|---------------------------------------------------------------------------|
D|--4-------------------------------------------------------8----------------|
A|---------------------------------------------------------------------------|
E|---------------------------------------------------------------------------|

    1   +   2   +   3   +   4   +   5   +   6   +
e|--------------------------------------------------|
B|--------------------------------------------------|
G|--------------------------------------------------|
D|--------------------------------------------------|
A|--8------------------------3----------------------|
E|--------------------------------------------------|

    1   +   2   +   3   +   4   +   5   +   6   +   7   +   8   +   9   +
e|---------------------------------------------------------------------------|
B|---------------------------------------------------------------------------|
G|---------------------------------------------------------------------------|
D|------------------------------------------4-------4------------------------|
A|----------------------------------------------------------5-------4--------|
E|--4------------------------------------------------------------------------|

    1   +   2   +   3   +   4   +   5   +      1   +   2   +   3   +   4   +
e|------------------------------------------|----------------------------------|
B|------------------------------------------|----------------------------------|
G|------------------------------------------|----------------------------------|
D|------------------------------------------|----------------------------------|
A|--3-------r---3-------3-------3-------r---|--3-------r---3-------3-------r---|
E|--3-------r---3-------3-------3-------r---|--3-------r---3-------3-------r---|

    1   +   2   +   3   +   4   +   5   +      1   +   2   +   3   +   4   +
e|------------------------------------------|----------------------------------|
B|------------------------------------------|----------------------------------|
G|------------------------------------------|----------------------------------|
D|------------------------------------------|----------------------------------|
A|--3-------r---3-------3-------3-------r---|--3-------r---3-------3-------r---|
E|--3-------r---3-------3-------3-------r---|--3-------r---3-------3-------r---|

    1   +   2   +   3   +   4   +   5   +      1   +   2   +   3   +   4   +
e|------------------------------------------|----------------------------------|
B|------------------------------------------|----------------------------------|
G|------------------------------------------|----------------------------------|
D|--5-----------5-------5-------5-----------|--5-----------5-------5-----------|
A|--3---3---3---3---3---3---3---3---3---3---|--3---3---3---3---3---3---3---3---|
E|------------------------------------------|----------------------------------|

    1   +   2   +   3   +   4   +   5   +      1   +   2   +   3   +   4   +
e|------------------------------------------|----------------------------------|
B|------------------------------------------|----------------------------------|
G|------------------------------------------|----------------------------------|
D|--5-----------5-------5-------5-----------|--5-----------5-------5-----------|
A|--3---3---3---3---3---3---3---3---3---3---|--3---3---3---3---3---3---3---3---|
E|------------------------------------------|----------------------------------|

    1   +   2   +   3   +   4   +   5   +      1   +   2   +   3   +   4   +
e|------------------------------------------|----------------------------------|
B|------------------------------------------|----------------------------------|
G|--------------------------4---7---5-------|----------------------------------|
D|----------5---4---7---6---------------5---|--8---7---4---6---3---5-----------|
A|--3---6-----------------------------------|--------------------------6---5---|
E|------------------------------------------|----------------------------------|

    1   +   2   +   3   +   4   +   5   +      1   +   2   +   3   +   4   +
e|------------------------------------------|----------------------------------|
B|------------------------------------------|----------------------------------|
G|--------------------------4---7---5-------|----------------------------------|
D|----------5---4---7---6---------------5---|--8---7---4---6---3---5-----------|
A|--3---6-----------------------------------|--------------------------6---5---|
E|------------------------------------------|----------------------------------|

    1   +   2   +   3   +   4   +   5   +      1   +   2   +   3   +   4   +
e|------------------------------------------|----------------------------------|
B|------------------------------------------|----------------------------------|
G|------------------------------------------|----------------------------------|
D|------------------------------------------|----------------------------------|
A|--3-------r---3-------3-------3-------r---|--3-------r---3-------3-------r---|
E|--3-------r---3-------3-------3-------r---|--3-------r---3-------3-------r---|

    1   +   2   +   3   +   4   +   5   +      1   +   2   +   3   +   4   +
e|------------------------------------------|------------------------------x---|
B|------------------------------------------|------------------------------x---|
G|------------------------------------------|------------------------------x---|
D|------------------------------------------|----------------------------------|
A|--3-------r---3-------3-------3-------r---|--3-------r---3-------3-----------|
E|--3-------r---3-------3-------3-------r---|--3-------r---3-------3-----------|

    1   +   2   +   3   +   4   +   5   +      1   +   2   +   3   +   4   +
e|------------------------------------------|----------------------------------|
B|------------------------------------------|----------------------------------|
G|------------------------------------------|----------------------------------|
D|------------------------------------------|----------------------------------|
A|--2-------r---2-------2-------2-------r---|--2-------r---2-------2-------r---|
E|--0-------r---0-------0-------0-------r---|--0-------r---0-------0-------r---|

    1   +   2   +   3   +   4   +   5   +      1   +   2   +   3   +   4   +
e|------------------------------------------|----------------------------------|
B|------------------------------------------|----------------------------------|
G|------------------------------------------|----------------------------------|
D|------------------------------------------|----------------------------------|
A|--2-------r---2-------2-------2-------r---|--2-------r---2-------2-------r---|
E|--0-------r---0-------0-------0-------r---|--0-------r---0-------0-------r---|

    1   +   2   +   3   +   4   +   5   +      1   +   2   +   3   +   4   +
e|------------------------------------------|----------------------------------|
B|------------------------------------------|----------------------------------|
G|------------------------------------------|----------------------------------|
D|------------------------------------------|----------------------------------|
A|--2-------r---2-------2-------2-------r---|--2-------r---2-------2-------r---|
E|--0-------r---0-------0-------0-------r---|--0-------r---0-------0-------r---|

    1   +   2   +   3   +   4   +      1   +   2   +   3   +   4   +
e|----------------------------------|----------------------------------|
B|----------------------------------|----------------------------------|
G|----------------------------------|----------------------------------|
D|----------------------------------|----------------------------------|
A|--2-------r---2-------2-------r---|--2-----------2-------------------|
E|--0-------r---0-------0-------r---|--0-----------0---------------0---|

    1   +   2   +   3   +   4   +   5   +      1   +   2   +   3   +   4   +
e|------------------------------------------|----------------------------------|
B|------------------------------------------|----------------------------------|
G|------------------------------------------|----------------------------------|
D|------------------------------------------|----------------------------------|
A|--2-------r---2-------2-------2-------r---|--2-------r---2-------2-------r---|
E|--0-------r---0-------0-------0-------r---|--0-------r---0-------0-------r---|

    1   +   2   +   3   +   4   +   5   +      1   +   2   +   3   +   4   +
e|------------------------------------------|----------------------------------|
B|------------------------------------------|----------------------------------|
G|------------------------------------------|----------------------------------|
D|------------------------------------------|----------------------------------|
A|--2-------r---2-------2-------2-------r---|--2-------r---2-------2-------r---|
E|--0-------r---0-------0-------0-------r---|--0-------r---0-------0-------r---|

    1   +   2   +   3   +   4   +   5   +      1   +   2   +   3   +   4   +
e|------------------------------------------|----------------------------------|
B|------------------------------------------|----------------------------------|
G|------------------------------------------|----------------------------------|
D|------------------------------------------|----------------------------------|
A|--2-------r---2-------2-------2-------r---|--2-------r---2-------2-------r---|
E|--0-------r---0-------0-------0-------r---|--0-------r---0-------0-------r---|


    1   +   2   +   3   +   4   +      1   +   2   +   3   +   4   +
e|----------------------------------|----------------------------------|
B|----------------------------------|----------------------------------|
G|----------------------------------|----------------------------------|
D|----------------------------------|----------------------------------|
A|--2-------r---2-------2-------r---|--2-----------2-------------------|
E|--0-------r---0-------0-------r---|--0-----------0---------------0---|

    1   +   2   +   3   +   4   +      1   +   2   +   3   +   4   +
e|----------------------------------|----------------------------------|
B|----------------------------------|----------------------------------|
G|----------------------------------|----------------------------------|
D|----------------------------------|----------------------------------|
A|--2-----------2-------2-------2---|------------------2---------------|
E|------0---0-------0-------0-------|--0---0---0-0-0-------0---0---0---|

    1   +   2   +   3   +   4   +      1   +   2   +   3   +   4   +
e|----------------------------------|----------------------------------|
B|----------------------------------|----------------------------------|
G|----------------------------------|----------------------------------|
D|----------------------------------|----------------------------------|
A|--3-----------3-------3-------3---|------------------3---------------|
E|------0---0-------0-------0-------|--0---0---0-0-0-------0---0---0---|

    1   +   2   +   3   +   4   +      1   +   2   +   3   +   4   +
e|----------------------------------|----------------------------------|
B|----------------------------------|----------------------------------|
G|----------------------------------|----------------------------------|
D|----------------------------------|----------------------------------|
A|--7-----------7-------7-------7---|------------------7---------------|
E|------0---0-------0-------0-------|--0---0---0-0-0-------0---0---0---|

    1   +   2   +   3   +   4   +      1   +   2   +   3   +   4   +
e|----------------------------------|----------------------------------|
B|----------------------------------|----------------------------------|
G|----------------------------------|----------------------------------|
D|----------------------------------|----------------------------------|
A|--1-----------1-------1-----------|--0-----------0-------0-----------|
E|------0---0-------0-------0---0---|------0---0-------0-------0---0---|

    1   +   2   +   3   +   4   +      1   +   2   +   3   +   4   +
e|----------------------------------|----------------------------------|
B|----------------------------------|----------------------------------|
G|----------------------------------|----------------------------------|
D|----------------------------------|----------------------------------|
A|--2-----------2-------2-------2---|------------------2---------------|
E|------0---0-------0-------0-------|--0---0---0-0-0-------0---0---0---|

    1   +   2   +   3   +   4   +      1   +   2   +   3   +   4   +
e|----------------------------------|----------------------------------|
B|----------------------------------|----------------------------------|
G|----------------------------------|----------------------------------|
D|----------------------------------|----------------------------------|
A|--5-----------5-------5-------5---|------------------5---------------|
E|------0---0-------0-------0-------|--0---0---0-0-0-------0---0---0---|

    1   +   2   +   3   +   4   +      1   +   2   +   3   +   4   +
e|----------------------------------|----------------------------------|
B|----------------------------------|----------------------------------|
G|----------------------------------|----------------------------------|
D|----------------------------------|----------------------------------|
A|--4-----------4-------4-------4---|------------------4---------------|
E|------0---0-------0-------0-------|--0---0---0-0-0-------0---0---0---|

    1   +   2   +   3   +   4   +      1   +   2   +   3   +   4   +
e|----------------------------------|----------------------------------|
B|----------------------------------|----------------------------------|
G|----------------------------------|----------------------------------|
D|----------------------------------|----------------------------------|
A|--3-----------3-------3-------3---|--3-----------3-------3-----------|
E|------0---0-------0-------0-------|--1---0---0---1---0---1---0---0---|

    1   +   2   +   3   +   4   +      1   +   2   +   3   +   4   +
e|----------------------------------|----------------------------------|
B|----------------------------------|----------------------------------|
G|----------------------------------|----------------------------------|
D|------------------------------7---|------------------7---8---8-------|
A|----------------------4-------5---|------5---5---5---5---6---6-------|
E|--3---6---3---5-------------------|----------------------------------|

    1   +   2   +   3   +   4   +      1   +   2   +   3   +   4   +
e|----------------------------------|----------------------------------|
B|----------------------------------|----------------------------------|
G|----------------------------------|----------------------------------|
D|------------------------------7---|----------------------------------|
A|----------------------6-------5---|----------6---------------6-------|
E|--3---6---3---5-------------------|------4---4-------4---4---4-------|

    1   +   2   +   3   +   4   +      1   +   2   +   3   +   4   +
e|----------------------------------|----------------------------------|
B|----------------------------------|----------------------------------|
G|----------------------------------|----------------------------------|
D|------------------------------7---|------------------7---6-----------|
A|----------------------4-------5---|------5---5---5---5---4---8-------|
E|--3---6---3---5-------------------|--------------------------6-------|

    1   +   2   +   3   +   4   +      1   +   2   +   3   +   4   +
e|----------------------------------|----------------------------------|
B|----------------------------------|----------------------------------|
G|----------------------------------|----------------------------------|
D|----------------------5-------4---|----------------------------------|
A|----------------------------------|------6---5-----------7---6-------|
E|--3---6---3---5-------------------|------------------3---5---4-------|

    1   +   2   +   3   +   4   +      1   +   2   +   3   +   4   +
e|----------------------------------|----------------------------------|
B|----------------------------------|----------------------------------|
G|----------------------------------|----------------------------------|
D|------------------------------7---|------------------7---8---8-------|
A|----------------------4-------5---|------5---5---5---5---6---6-------|
E|--3---6---3---5-------------------|----------------------------------|

    1   +   2   +   3   +   4   +      1   +   2   +   3   +   4   +
e|----------------------------------|----------------------------------|
B|----------------------------------|----------------------------------|
G|----------------------------------|----------------------------------|
D|------------------------------7---|----------------------------------|
A|----------------------6-------5---|----------6---------------6-------|
E|--3---6---3---5-------------------|------4---4-------4---4---4-------|

    1   +   2   +   3   +   4   +      1   +   2   +   3   +   4   +
e|----------------------------------|----------------------------------|
B|----------------------------------|----------------------------------|
G|----------------------------------|----------------------------------|
D|------------------------------7---|------------------7---6-----------|
A|----------------------4-------5---|------5---5---5---5---4---8-------|
E|--2---6---3---5-------------------|--------------------------6-------|

    1   +   2   +   3   +   4   +      1   +   2   +   3   +   4   +
e|----------------------------------|----------------------------------|
B|----------------------------------|----------------------------------|
G|----------------------------------|----------------------------------|
D|----------------------5-------4---|----------------------------------|
A|----------------------------------|------6---5-----------7---6-------|
E|--3---6---3---5-------------------|------------------3---5---4-------|

    1   +   2   +   3   +   4   +      1   +   2   +   3   +   4   +
e|----------------------------------|----------------------------------|
B|----------------------------------|----------------------------------|
G|------------------------------5---|----------5---5---5---5---5---5---|
D|------------------------------5---|----------5---5---5---5---5---5---|
A|--5-------r---5-------r---5---3---|----------3---3---3---3---3---3---|
E|--3-------r---3-------r---3-------|----------------------------------|

    1   +   2   +   3   +   4   +      1   +   2   +   3   +   4   +
e|----------------------------------|----------------------------------|
B|----------------------------------|----------------------------------|
G|--5---5---5---5---5---5---5-------|----------------------------------|
D|--5---5---5---5---5---5---5---8---|--8---8---8---8---8---8---8---8---|
A|--3---3---3---3---3---3---3---6---|--6---6---6---6---6---6---6---6---|
E|------------------------------6---|--6---6---6---6---6---6---6---6---|

    1   +   2   +   3   +   4   +      1   +   2   +   3   +   4   +
e|----------------------------------|----------------------------------|
B|----------------------------------|----------------------------------|
G|----------------------------------|----------------------------------|
D|--8---8---8---8---8---8---8---6---|--6---6---6---6---6---6---6---6---|
A|--6---6---6---6---6---6---6---6---|--6---6---6---6---6---6---6---6---|
E|--6---6---6---6---6---6---6---4---|--4---4---4---4---4---4---4---4---|

    1   +   2   +   3   +   4   +      1   +   2   +   3   +   4   +
e|----------------------------------|----------------------------------|
B|----------------------------------|----------------------------------|
G|----------------------------------|----------------------------------|
D|--6---6---6---6---6---6---6---7---|--7---7---7---7---7---7---7---7---|
A|--6---6---6---6---6---6---6---6---|--6---6---6---6---6---6---6---6---|
E|--4---4---4---4---4---4---4---5---|--5---5---5---5---5---5---5---5---|

    1   +   2   +   3   +   4   +      1   +   2   +   3   +   4   +
e|----------------------------------|----------------------------------|
B|----------------------------------|----------------------------------|
G|------------------------------5---|--5---5---5---5---5---5---5---5---|
D|--7---7---7---7---7---7---7---5---|--5---5---5---5---5---5---5---5---|
A|--6---6---6---6---6---6---6---3---|--3---3---3---3---3---3---3---3---|
E|--5---5---5---5---5---5---5-------|----------------------------------|

    1   +   2   +   3   +   4   +      1   +   2   +   3   +   4   +
e|----------------------------------|----------------------------------|
B|----------------------------------|----------------------------------|
G|--5---5---5---5---5---5---5-------|----------------------------------|
D|--5---5---5---5---5---5---5---8---|--8---8---8---8---8---8---8---8---|
A|--3---3---3---3---3---3---3---6---|--6---6---6---6---6---6---6---6---|
E|------------------------------6---|--6---6---6---6---6---6---6---6---|

    1   +   2   +   3   +   4   +      1   +   2   +   3   +   4   +
e|----------------------------------|----------------------------------|
B|----------------------------------|----------------------------------|
G|----------------------------------|----------------------------------|
D|--8---8---8---8---8---8---8---6---|--6---6---6---6---6---6---6---6---|
A|--6---6---6---6---6---6---6---6---|--6---6---6---6---6---6---6---6---|
E|--6---6---6---6---6---6---6---4---|--4---4---4---4---4---4---4---4---|

    1   +   2   +   3   +   4   +      1   +   2   +   3   +   4   +
e|----------------------------------|----------------------------------|
B|----------------------------------|----------------------------------|
G|----------------------------------|----------------------------------|
D|--6---6---6---6---6---6---6-------|----------------------------------|
A|--6---6---6---6---6---6---6-------|----------------------------------|
E|--4---4---4---4---4---4---4---5---|----------2-----------1-----------|

    1   +   2   +   3   +   4   +      1   +   2   +   3   +   4   +
e|----------------------------------|----------------------------------|
B|----------------------------------|----------------------------------|
G|------------------------------5---|----------5---5---5---5---5---5---|
D|------------------------------5---|----------5---5---5---5---5---5---|
A|--6---------------1-------2---3---|----------3---3---3---3---3---3---|
E|----------------------------------|----------------------------------|

    1   +   2   +   3   +   4   +      1   +   2   +   3   +   4   +
e|----------------------------------|----------------------------------|
B|----------------------------------|----------------------------------|
G|--5---5---5---5---5---5---5-------|----------------------------------|
D|--5---5---5---5---5---5---5---8---|--8---8---8---8---8---8---8---8---|
A|--3---3---3---3---3---3---3---6---|--6---6---6---6---6---6---6---6---|
E|------------------------------6---|--6---6---6---6---6---6---6---6---|

    1   +   2   +   3   +   4   +      1   +   2   +   3   +   4   +
e|----------------------------------|----------------------------------|
B|----------------------------------|----------------------------------|
G|----------------------------------|----------------------------------|
D|--8---8---8---8---8---8---8---6---|--6---6---6---6---6---6---6---6---|
A|--6---6---6---6---6---6---6---6---|--6---6---6---6---6---6---6---6---|
E|--6---6---6---6---6---6---6---4---|--4---4---4---4---4---4---4---4---|

    1   +   2   +   3   +   4   +      1   +   2   +   3   +   4   +
e|----------------------------------|----------------------------------|
B|----------------------------------|----------------------------------|
G|----------------------------------|----------------------------------|
D|--6---6---6---6---6---6---6---7---|--7---7---7---7---7---7---7---7---|
A|--6---6---6---6---6---6---6---6---|--6---6---6---6---6---6---6---6---|
E|--4---4---4---4---4---4---4---5---|--5---5---5---5---5---5---5---5---|

    1   +   2   +   3   +   4   +      1   +   2   +   3   +   4   +
e|----------------------------------|----------------------------------|
B|----------------------------------|----------------------------------|
G|------------------------------5---|--5---5---5---5---5---5---5---5---|
D|--7---7---7---7---7---7---7---5---|--5---5---5---5---5---5---5---5---|
A|--6---6---6---6---6---6---6---3---|--3---3---3---3---3---3---3---3---|
E|--5---5---5---5---5---5---5-------|----------------------------------|

    1   +   2   +   3   +   4   +      1   +   2   +   3   +   4   +
e|----------------------------------|----------------------------------|
B|----------------------------------|----------------------------------|
G|--5---5---5---5---5---5---5-------|----------------------------------|
D|--5---5---5---5---5---5---5---8---|--8---8---8---8---8---8---8---8---|
A|--3---3---3---3---3---3---3---6---|--6---6---6---6---6---6---6---6---|
E|------------------------------6---|--6---6---6---6---6---6---6---6---|

    1   +   2   +   3   +   4   +      1   +   2   +   3   +   4   +
e|----------------------------------|----------------------------------|
B|----------------------------------|----------------------------------|
G|----------------------------------|----------------------------------|
D|--8---8---8---8---8---8---8---6---|--6---6---6---6---6---6---6---6---|
A|--6---6---6---6---6---6---6---6---|--6---6---6---6---6---6---6---6---|
E|--6---6---6---6---6---6---6---4---|--4---4---4---4---4---4---4---4---|

    1   +   2   +   3   +   4   +      1   +   2   +   3   +   4   +
e|----------------------------------|----------------------------------|
B|----------------------------------|----------------------------------|
G|----------------------------------|----------------------------------|
D|--6---6---6---6---6---6---6---7---|--7---7---7---7---7---7---7---7---|
A|--6---6---6---6---6---6---6---6---|--6---6---6---6---6---6---6---6---|
E|--4---4---4---4---4---4---4---5---|--5---5---5---5---5---5---5---5---|

    1   +   2   +   3   +   4   +      1   +   2   +   3   +   4   +   5   +   6   +
e|----------------------------------|--------------------------------------------------|
B|----------------------------------|--------------------------------------------------|
G|----------------------------------|--------------------------------------------------|
D|--7---7---7---7---7---------------|--------------------------------------------------|
A|--6---6---6---6---6---------------|--3-----------------------6-----------------------|
E|--5---5---5---5---5---------------|--------------------------------------------------|

    1   +   2   +   3   +   4   +   5   +   6   +   7   +   8   +   9   +
e|--------------------------------------------------------------------------|
B|--------------------------------------------------------------------------|
G|--------------------------------------------------------------------------|
D|--------------------------------------------------------------------------|
A|--------------------------------------------------------------------------|
E|--3-------------------------------------------------------6---------------|

    1   +   2   +   3   +   4   +   5   +   6   +
e|--------------------------------------------------|
B|--------------------------------------------------|
G|--------------------------------------------------|
D|--------------------------------------------------|
A|--------------------------3-----------------------|
E|--1-----------------------------------------------|

    1   +   2   +   3   +   4   +   5   +   6   +   7   +   8   +   9   +
e|--------------------------------------------------------------------------|
B|--------------------------------------------------------------------------|
G|--------------------------------------------------------------------------|
D|------------------------------------------4-------4-----------------------|
A|----------------------------------------------------------5-------4-------|
E|--4-----------------------------------------------------------------------|

    1   +   2   +   3   +   4   +   5   +   6   +
e|--------------------------------------------------|
B|--------------------------------------------------|
G|--------------------------------------------------|
D|--------------------------------------------------|
A|--3-----------------------6-----------------------|
E|--------------------------------------------------|

    1   +   2   +   3   +   4   +   5   +   6   +   7   +   8   +   9   +
e|--------------------------------------------------------------------------|
B|--------------------------------------------------------------------------|
G|--------------------------------------------------------------------------|
D|--4-------------------------------------------------------8---------------|
A|--------------------------------------------------------------------------|
E|--------------------------------------------------------------------------|

    1   +   2   +   3   +   4   +   5   +   6   +
e|--------------------------------------------------|
B|--------------------------------------------------|
G|--------------------------------------------------|
D|--------------------------------------------------|
A|--8-----------------------3-----------------------|
E|--------------------------------------------------|

    1   +   2   +   3   +   4   +   5   +   6   +   7   +   8   +   9   +
e|--------------------------------------------------------------------------|
B|--------------------------------------------------------------------------|
G|--------------------------------------------------------------------------|
D|------------------------------------------4-------4-----------------------|
A|----------------------------------------------------------5-------4-------|
E|--4-----------------------------------------------------------------------|

    1   +   2   +   3   +   4   +   5   +   6   +
e|--------------------------------------------------|
B|--------------------------------------------------|
G|--------------------------------------------------|
D|--------------------------------------------------|
A|--3-----------------------6-----------------------|
E|--------------------------------------------------|

    1   +   2   +   3   +   4   +   5   +   6   +   7   +   8   +   9   +
e|--------------------------------------------------------------------------|
B|--------------------------------------------------------------------------|
G|--------------------------------------------------------------------------|
D|--------------------------------------------------------------------------|
A|--------------------------------------------------------------------------|
E|--2-------------------------------------------------------6---------------|

    1   +   2   +   3   +   4   +   5   +   6   +
e|--------------------------------------------------|
B|--------------------------------------------------|
G|--------------------------------------------------|
D|--------------------------------------------------|
A|--------------------------3-----------------------|
E|--1-----------------------------------------------|

    1   +   2   +   3   +   4   +   5   +   6   +   7   +   8   +   9   +
e|--------------------------------------------------------------------------|
B|--------------------------------------------------------------------------|
G|--------------------------------------------------------------------------|
D|------------------------------------------4-------4-----------------------|
A|----------------------------------------------------------5-------4-------|
E|--4-----------------------------------------------------------------------|

    1   +   2   +   3   +   4   +   5   +   6   +
e|--------------------------------------------------|
B|--------------------------------------------------|
G|--------------------------------------------------|
D|--------------------------------------------------|
A|--3-----------------------6-----------------------|
E|--------------------------------------------------|

    1   +   2   +   3   +   4   +   5   +   6   +   7   +   8   +   9   +
e|--------------------------------------------------------------------------|
B|--------------------------------------------------------------------------|
G|--------------------------------------------------------------------------|
D|--------------------------------------------------------------------------|
A|--------------------------------------------------------------------------|
E|--2-------------------------------------------------------6---------------|

    1   +   2   +   3   +   4   +   5   +   6   +
e|--------------------------------------------------|
B|--------------------------------------------------|
G|--------------------------------------------------|
D|--------------------------------------------------|
A|--------------------------3-----------------------|
E|--1-----------------------------------------------|

    1   +   2   +   3   +   4   +   5   +   6   +   7   +   8   +   9   +
e|--------------------------------------------------------------------------|
B|--------------------------------------------------------------------------|
G|--------------------------------------------------------------------------|
D|------------------------------------------4-------4-----------------------|
A|----------------------------------------------------------5-------4-------|
E|--4-----------------------------------------------------------------------|

    1   +   2   +   3   +   4   +   5   +   6   +
e|--------------------------------------------------|
B|--------------------------------------------------|
G|--------------------------------------------------|
D|--------------------------------------------------|
A|-3------------------------6-----------------------|
E|--------------------------------------------------|

    1   +   2   +   3   +   4   +   5   +   6   +   7   +   8   +   9   +
e|--------------------------------------------------------------------------|
B|--------------------------------------------------------------------------|
G|--------------------------------------------------------------------------|
D|--4-------------------------------------------------------6---------------|
A|--------------------------------------------------------------------------|
E|--------------------------------------------------------------------------|

    1   +   2   +   3   +   4   +   5   +   6   +
e|--------------------------------------------------|
B|--------------------------------------------------|
G|--------------------------------------------------|
D|--------------------------------------------------|
A|--8-----------------------3-----------------------|
E|--------------------------------------------------|

    1   +   2   +   3   +   4   +   5   +   6   +   7   +   8   +   9   +
e|--------------------------------------------------------------------------|
B|--------------------------------------------------------------------------|
G|--------------------------------------------------------------------------|
D|------------------------------------------4-------4-----------------------|
A|----------------------------------------------------------5-------4-------|
E|--4-----------------------------------------------------------------------|

    1   +   2   +   3   +   4   +   5   +   6   +
e|--------------------------------------------------|
B|--------------------------------------------------|
G|--------------------------------------------------|
D|--------------------------5-------5-------5-------|
A|--3-------3---3-------3---3-------3-------3-------|
E|--------------------------------------------------|

    1   +   2   +   3   +   4   +   5   +   6   +   7   +   8   +   9   +
e|--------------------------------------------------------------------------|
B|--------------------------------------------------------------------------|
G|--------------------------------------------------------------------------|
D|--------------------------------------------------------------------------|
A|--------------------------4-------4-------4-------4-------4-------4-------|
E|--2---2---2---2-------2---2-------2-------2-------2-------2-------2-------|

    1   +   2   +   3   +   4   +   5   +   6   +
e|--------------------------------------------------|
B|--------------------------------------------------|
G|--------------------------------------------------|
D|--------------------------------------------------|
A|--------------------------3-------3-------3-------|
E|--1---1---1---1-------1---1-------1-------1-------|

    1   +   2   +   3   +   4   +   5   +   6   +   7   +   8   +   9   +
e|--------------------------------------------------------------------------|
B|--------------------------------------------------------------------------|
G|--------------------------------------------------------------------------|
D|------------------------------------------4-------4-------7-------6-------|
A|--------------------------6-------6-----------------------5-------4-------|
E|--4---4---4---4-------4---4-------4---------------------------------------|

    1   +   2   +   3   +   4   +   5   +   6   +
e|--------------------------------------------------|
B|--------------------------------------------------|
G|--------------------------------------------------|
D|--------------------------5-------5-------5-------|
A|--3---3---3---3-------3---3-------3-------3-------|
E|--------------------------------------------------|

    1   +   2   +   3   +   4   +   5   +   6   +   7   +   8   +   9   +
e|--------------------------------------------------------------------------|
B|--------------------------------------------------------------------------|
G|--------------------------------------------------------------------------|
D|--------------------------------------------------------------------------|
A|--------------------------4-------4-------4-------4-------4-------4-------|
E|--2---2---2---2-------2---2-------2-------2-------2-------2-------2-------|

    1   +   2   +   3   +   4   +   5   +   6   +
e|--------------------------------------------------|
B|--------------------------------------------------|
G|--------------------------------------------------|
D|--------------------------------------------------|
A|--------------------------3-------3-------3-------|
E|--1---1---1---1-------1---1-------1-------1-------|

    1   +   2   +   3   +   4   +   5   +   6   +   7   +   8   +   9   +
e|--------------------------------------------------------------------------|
B|--------------------------------------------------------------------------|
G|--------------------------------------------------------------------------|
D|------------------------------------------4-------4-----------------------|
A|--------------------------6-------6-----------------------12------11------|
E|--4---4---4---4-------4---4-------4-----------------------10------9-------|

    1   +   2   +   3   +   4   +   5   +   6   +   7   +
e|----------------------------------------------------------|
B|----------------------------------------------------------|
G|----------12--10--12--10--------------18------16------15--|
D|------10------------------13------16----------------------|
A|--10--------------------------14----------14------14------|
E|----------------------------------------------------------|

    1   2   3   4   5   6   7   8   9   10  11  12  13  14  15
e|--------------------------------------------------------------|
B|--------------------------------------------------------------|
G|----------15--13--15--13--------------14------13--------------|
D|------13------------------16------12------12------12--16--12--|
A|--13--------------------------12------------------------------|
E|--------------------------------------------------------------|

    1   +   2   +   3   +   4   +   5   +   6   +   7   +
e|----------------------------------------------------------|
B|----------------------------------------------------------|
G|----------12--10--12--10--------------18------16------15--|
D|------10------------------13------16----------------------|
A|--10--------------------------14----------14------14------|
E|----------------------------------------------------------|

    1   +   2   +   3   +   4   +
e|----------------------------------|
B|----------------------------------|
G|------15131513------14--13--------|
D|----13--------16--12--12--121612--|
A|--13------------12--------------12|
E|----------------------------------|

    1   +   2   +   3   +   4   +   5   +   6   +   7   +
e|----------------------------------------------------------|
B|----------------------------------------------------------|
G|----------12--10--12--10--------------18------16------15--|
D|------10------------------13------16----------------------|
A|--10--------------------------14----------14------14------|
E|----------------------------------------------------------|

    1   2   3   4   5   6   7   8   9   10  11  12  13  14  15
e|--------------------------------------------------------------|
B|--------------------------------------------------------------|
G|----------15--13--15--13--------------14------13--------------|
D|------13------------------16------12------12------12--16--12--|
A|--13--------------------------12------------------------------|
E|--------------------------------------------------------------|

    1   +   2   +   3   +   4   +   5   +   6   +   7   +
e|----------------------------------------------------------|
B|----------------------------------------------------------|
G|----------12--10--12--10--------------18------16------15--|
D|------10------------------13------16----------------------|
A|--10--------------------------14----------14------14------|
E|----------------------------------------------------------|

    1   2   3   4   5   6   7   8   9   10  11  12  13  14  15  16  17  18  19
e|------------------------------------------------------------------------------|
B|------------------------------------------------------------------------------|
G|----------15--13--15--13--------------14------13------------------------------|
D|------13------------------16------12------12------12--16--12------13----------|
A|--13--------------------------12------------------------------12------14--9---|
E|------------------------------------------------------------------------------|

    1   +   2   +   3   +   4   +   5   +   6   +   7   +
e|----------------------------------------------------------|
B|----------------------------------------------------------|
G|----------12--10--12--10--------------16------16------15--|
D|------10------------------13------16----------------------|
A|--10--------------------------14----------14------14------|
E|----------------------------------------------------------|

    1   2   3   4   5   6   7   8   9   10  11  12  13  14  15  16  17  18  19
e|------------------------------------------------------------------------------|
B|------------------------------------------------------------------------------|
G|----------15--13--15--13--------------14------13------------------------------|
D|------13------------------16------12------12------12--16--12------13----------|
A|--13--------------------------12------------------------------12------14--9---|
E|------------------------------------------------------------------------------|

    1   +   2   +   3   +   4   +   5   +   6   +   7   +
e|----------------------------------------------------------|
B|--------------------------------------14------12------11--|
G|----------12--10--12--10----------11----------------------|
D|------10------------------13--9-----------9-------9-------|
A|--10------------------------------------------------------|
E|----------------------------------------------------------|

    1   +   2   +   3   +   4   +      1   +   2   +   3   +   4   +   5   +   6   +   7   +
e|----------------------------------|----------------------------------------------------------|
B|----------------------------------|----------------------------------------------------------|
G|------15131513------14--13--------|----------12--10--12--10--------------18------16------15--|
D|----13--------16--12--12--121612--|------10------------------13------16----------------------|
A|--13------------12--------------12|--10--------------------------14----------14------14------|
E|----------------------------------|----------------------------------------------------------|

    1   2   3   4   5   6   7   8   9   10  11  12  13  14  15
e|--------------------------------------------------------------|
B|--------------------------------------------------------------|
G|----------15--13--15--13--------------14------13--------------|
D|------13------------------16------12------12------12--16--12--|
A|--13--------------------------12------------------------------|
E|--------------------------------------------------------------|

    1   +   2   +   3   +   4   +   5   +   6   +   7   +
e|----------------------------------------------------------|
B|----------------------------------------------------------|
G|----------12--10--12--10--------------18------16------15--|
D|------10------------------13------16----------------------|
A|--10--------------------------14----------14------14------|
E|----------------------------------------------------------|

    1   +   2   +   3   +   4   +
e|----------------------------------|
B|----------------------------------|
G|------15131513------14--13--------|
D|----13--------16--12--12--121612--|
A|--13------------12--------------12|
E|----------------------------------|

    1   2   3   4   5   6   7   8   9
e|--------------------------------------|
B|--------------------------------------|
G|--------------------------------------|
D|--13----------10----------7-----------|
A|------14--9-------11--6-------8---4---|
E|--------------------------------------|

    1   +   2   +   3   +   4   +   5   +   6   +
e|--------------------------------------------------|
B|--------------------------------------------------|
G|--------------------------------------------------|
D|--5-----------------------------------------------|
A|----------6-------3-------6-------3---------------|
E|------------------------------------------3-------|

    1   +   2   +   3   +   4   +      1   +   2   +   3   +   4   +
e|----------------------------------|----------------------------------|
B|----------------------------------|----------------------------------|
G|--10b12b10----------------8-------|--11------------------------------|
D|----------------------------------|----------------------------------|
A|----------------------------------|----------------------------------|
E|----------------------------------|----------------------------------|

    1   +   2   +   3   +   4   +      1   +   2   +   3   +   4   +
e|----------------------------------|----------------------------------|
B|----------------------------------|----------------------------------|
G|--10b11b10----------------8-------|----------------------------------|
D|----------------------------------|--7\0-----------------------------|
A|----------------------------------|----------------------------------|
E|----------------------------------|----------------------------------|

    1   +   2   +   3   +   4   +      1   +   2   +   3   +   4   +
e|----------------------------------|----------------------------------|
B|----------------------------------|----------------------------------|
G|--8b9-------------8b9b8---6-------|--9-----------------------9---11--|
D|----------------------------------|----------------------------------|
A|----------------------------------|----------------------------------|
E|----------------------------------|----------------------------------|

    1   +   2   +   3   +   4   +      1   +   2   +   3   +   4   +
e|----------------------------------|----------------------------------|
B|----------------------------------|----------------------------------|
G|--12----------------------12--14--|--15\0----------------------------|
D|----------------------------------|----------------------------------|
A|----------------------------------|----------------------------------|
E|----------------------------------|----------------------------------|

    1   +   2   +   3   +   4   +      1   +   2   +   3   +   4   +
e|----------------------------------|----------------------------------|
B|--13b14-----------13b14b1311------|--14----------------------14--16--|
G|----------------------------------|----------------------------------|
D|----------------------------------|----------------------------------|
A|----------------------------------|----------------------------------|
E|----------------------------------|----------------------------------|

    1   +   2   +   3   +   4   +      1   +   2   +   3   +   4   +
e|----------------------------------|----------------------------------|
B|--17--------------16b17b16----14--|--16b17-------------------17--19--|
G|----------------------------------|----------------------------------|
D|----------------------------------|----------------------------------|
A|----------------------------------|----------------------------------|
E|----------------------------------|----------------------------------|

    1   +   2   +   3   +   4   +      1   +   2   +   3   +   4   +
e|----------------------------------|--------------------------15--17--|
B|--20--------------19b20b19----17--|--19b20---------------------------|
G|----------------------------------|----------------------------------|
D|----------------------------------|----------------------------------|
A|----------------------------------|----------------------------------|
E|----------------------------------|----------------------------------|

    1   +   2   +   3   +   4   +      1   +   2   +   3   +   4   +
e|--18----------------------18--20--|--21------------------------------|
B|----------------------------------|----------------------------------|
G|----------------------------------|----------------------------------|
D|----------------------------------|----------------------------------|
A|----------------------------------|----------------------------------|
E|----------------------------------|----------------------------------|

    1   +   2   +   3   +   4   +      1   +   2   +   3   +   4   +
e|----------------------------------|----------------------------------|
B|----------------------------------|----------------------------------|
G|----------------------------------|----------------------------------|
D|----------------------------------|----------------------------------|
A|----------------------------------|----------------------------------|
E|----------------------------------|----------------------------------|

    1   +   2   +   3   +   4   +      1   +   2   +   3   +   4   +
e|----------------------------------|----------------------------------|
B|--10------------------------------|--9-------------------------------|
G|----------------------------------|----------------------------------|
D|----------------------------------|----------------------------------|
A|----------------------------------|----------------------------------|
E|----------------------------------|----------------------------------|

    1   +   2   +   3   +   4   +      1   +   2   +   3   +   4   +
e|----------------------------------|----------------------------------|
B|----------------------------------|----------------------------------|
G|----------------------------------|----------------------------------|
D|--11------------------------------|----------------------------------|
A|----------------------------------|----------------------------------|
E|----------------------------------|----------------------------------|

    1   +   2   +   3   +   4   +      1   +   2   +   3   +   4   +
e|----------------------------------|----------------------------------|
B|--10------------------------------|--9-------------------------------|
G|----------------------------------|----------------------------------|
D|----------------------------------|----------------------------------|
A|----------------------------------|----------------------------------|
E|----------------------------------|----------------------------------|

    1   +   2   +   3   +   4   +      1   +   2   +   3   +   4   +
e|----------------------------------|----------------------------------|
B|----------------------------------|----------------------------------|
G|--9-------------------------------|----------------------------------|
D|----------------------------------|----------------------------------|
A|----------------------------------|--0-------------------------------|
E|----------------------------------|----------------------------------|

    1   +   2   +   3   +   4   +      1   +   2   +   3   +   4   +
e|----------------------------------|----------------------------------|
B|----------------------------------|--10----------------------9-------|
G|----------------------------------|----------------------------------|
D|----------------------------------|----------------------------------|
A|----------------------------------|----------------------------------|
E|----------------------------------|----------------------------------|

    1   +   2   +   3   +   4   +      1   +   2   +   3   +   4   +
e|------------------9---------------|----------------------------------|
B|----------------------------------|------------------10--------------|
G|----------------------------------|----------------------------------|
D|----------------------------------|----------------------------------|
A|----------------------------------|----------------------------------|
E|----------------------------------|----------------------------------|

    1   +   2   +   3   +   4   +      1   +   2   +   3   +   4   +
e|----------------------------------|----------------------------------|
B|----------------------------------|----------------------------------|
G|--------------------------9-------|----------------------------------|
D|----------------------------------|----------------------------------|
A|----------------------------------|----------------------------------|
E|----------------------------------|----------------------------------|

    1   +   2   +   3   +   4   +      1   +   2   +   3   +   4   +
e|----------------------------------|----------------------------------|
B|----------------------------------|----------------------------------|
G|----------------------------------|----------------------------------|
D|--7-------------------------------|----------------------------------|
A|----------------------------------|----------------------------------|
E|----------------------------------|----------------------------------|

    1   +   2   +   3   +   4   +      1   +   2   +   3   +   4   +
e|----------------------------------|----------------------------------|
B|----------------------------------|------------------7---------------|
G|--9-------------------------------|--8-------------------------------|
D|----------------------------------|----------------------------------|
A|----------------------------------|----------------------------------|
E|----------------------------------|----------------------------------|

    1   +   2   +   3   +   4   +      1   +   2   +   3   +   4   +
e|----------------------------------|----------------------------------|
B|----------------------------------|----------------------------------|
G|----------------------------------|------------------8---------------|
D|--9-------------------------------|----------------------------------|
A|----------------------------------|----------------------------------|
E|----------------------------------|----------------------------------|

    1   +   2   +   3   +   4   +      1   +   2   +   3   +   4   +
e|----------------------------------|----------------------------------|
B|----------------------------------|------------------7---------------|
G|--9-------------------------------|--8-------------------------------|
D|----------------------------------|----------------------------------|
A|----------------------------------|----------------------------------|
E|----------------------------------|----------------------------------|

    1   +   2   +   3   +   4   +      1   +   2   +   3   +   4   +
e|----------------------------------|----------------------------------|
B|--9-------------------------------|------------------9-------10------|
G|----------------------------------|----------------------------------|
D|----------------------------------|----------------------------------|
A|----------------------------------|----------------------------------|
E|----------------------------------|----------------------------------|

    1   +   2   +   3   +   4   +      1   +   2   +   3   +   4   +
e|--7-------------------------------|----------------------------------|
B|----------------------------------|--7---------------9---------------|
G|----------------------------------|----------------------------------|
D|----------------------------------|----------------------------------|
A|----------------------------------|----------------------------------|
E|----------------------------------|----------------------------------|

    1   +   2   +   3   +   4   +      1   +   2   +   3   +   4   +
e|----------------------------------|----------------------------------|
B|--10------------------------------|----------------------------------|
G|----------------------------------|--6-------------------------------|
D|----------------------------------|----------------------------------|
A|----------------------------------|----------------------------------|
E|----------------------------------|----------------------------------|

    1   +   2   +   3   +   4   +      1   +   2   +   3   +   4   +
e|----------------------------------|----------------------------------|
B|------------------7-------9-------|--10------------------------------|
G|----------------------------------|----------------------------------|
D|----------------------------------|----------------------------------|
A|----------------------------------|----------------------------------|
E|----------------------------------|----------------------------------|

    1   +   2   +   3   +   4   +      1   +   2   +   3   +   4   +
e|----------------------------------|----------------------------------|
B|----------------------------------|----------------------------------|
G|----------------------------------|--11b13---------------------------|
D|--10------------------------------|----------------------------------|
A|----------------------------------|----------------------------------|
E|----------------------------------|----------------------------------|

    1   +   2   +   3   +   4   +      1   +   2   +   3   +   4   +
e|----------------------------------|----------------------------------|
B|------------------9-------10------|--12------------------------------|
G|----------------------------------|----------------------------------|
D|----------------------------------|----------------------------------|
A|----------------------------------|----------------------------------|
E|----------------------------------|----------------------------------|

    1   +   2   +   3   +   4   +      1   +   2   +   3   +   4   +
e|--9---------------10--------------|--9\5-----------------------------|
B|----------------------------------|----------------------------------|
G|----------------------------------|----------------------------------|
D|----------------------------------|----------------------------------|
A|----------------------------------|----------------------------------|
E|----------------------------------|----------------------------------|

    1   +   2   +   3   +   4   +      1   +   2   +   3   +   4   +
e|------------------5-------7-------|--7b8b7---------------------------|
B|----------------------------------|----------------------------------|
G|----------------------------------|----------------------------------|
D|----------------------------------|----------------------------------|
A|----------------------------------|----------------------------------|
E|----------------------------------|----------------------------------|

    1   +   2   +   3   +   4   +      1   +   2   +   3   +   4   +
e|--5-------------------------------|--24------------------------------|
B|----------------------------------|----------------------------------|
G|----------------------------------|----------------------------------|
D|----------------------------------|----------------------------------|
A|----------------------------------|----------------------------------|
E|----------------------------------|----------------------------------|

    1   +   2   +   3   +   4   +      1   +   2   +   3   +   4   +
e|----------------------------------|----------------------------------|
B|----------------------------------|----------------------------------|
G|--9-------8-------6---------------|--8-------------------------------|
D|--------------------------9-------|----------------------------------|
A|----------------------------------|----------------------------------|
E|----------------------------------|----------------------------------|

    1   +   2   +   3   +   4   +      1   +   2   +   3   +   4   +
e|----------------------------------|----------------------------------|
B|----------------------------------|----------------------------------|
G|----------------------------------|--9-------8-------6---------------|
D|----------------------------------|--------------------------9-------|
A|----------------------------------|----------------------------------|
E|----------------------------------|----------------------------------|

    1   +   2   +   3   +   4   +      1   +   2   +   3   +   4   +
e|----------------------------------|----------------------------------|
B|----------------------------------|----------------------------------|
G|--8-------------------------------|----------------------------------|
D|----------------------------------|----------------------------------|
A|----------------------------------|----------------------------------|
E|----------------------------------|----------------------------------|

    1   +   2   +   3   +   4   +      1   +   2   +   3   +   4   +
e|----------------------------------|----------------------------------|
B|----------------------------------|----------------------------------|
G|--9-------8-------6---------------|--6-------------------------------|
D|--------------------------9-------|----------------------------------|
A|----------------------------------|----------------------------------|
E|----------------------------------|----------------------------------|

    1   +   2   +   3   +   4   +      1   +   2   +   3   +   4   +
e|----------------------------------|----------------------------------|
B|----------------------------------|----------------------------------|
G|----------------------------------|--8b9b8-----------6---------------|
D|----------------------------------|--------------------------9-------|
A|----------------------------------|----------------------------------|
E|----------------------------------|----------------------------------|

    1   +   2   +   3   +   4   +      1   +   2   +   3   +   4   +
e|----------------------------------|----------------------------------|
B|----------------------------------|----------------------------------|
G|----------------------------------|----------------------------------|
D|----------------------------------|----------------------------------|
A|--7-------------------------------|----------------------------------|
E|----------------------------------|----------------------------------|

    1   +   2   +   3   +   4   +      1   +   2   +   3   +   4   +
e|--12------11------9---------------|--11------------------------------|
B|--------------------------12------|----------------------------------|
G|----------------------------------|----------------------------------|
D|----------------------------------|----------------------------------|
A|----------------------------------|----------------------------------|
E|----------------------------------|----------------------------------|

    1   +   2   +   3   +   4   +      1   +   2   +   3   +   4   +
e|----------------------------------|--12------11------9---------------|
B|----------------------------------|--------------------------12------|
G|----------------------------------|----------------------------------|
D|----------------------------------|----------------------------------|
A|----------------------------------|----------------------------------|
E|----------------------------------|----------------------------------|

    1   +   2   +   3   +   4   +      1   +   2   +   3   +   4   +
e|--14------------------------------|--11------------------------------|
B|----------------------------------|----------------------------------|
G|----------------------------------|----------------------------------|
D|----------------------------------|----------------------------------|
A|----------------------------------|----------------------------------|
E|----------------------------------|----------------------------------|

    1   +   2   +   3   +   4   +      1   +   2   +   3   +   4   +
e|--11b12b11--------9---------------|----------------------------------|
B|--------------------------12------|--12------------------------------|
G|----------------------------------|----------------------------------|
D|----------------------------------|----------------------------------|
A|----------------------------------|----------------------------------|
E|----------------------------------|----------------------------------|

    1   +   2   +   3   +   4   +      1   +   2   +   3   +   4   +
e|----------------------------------|----------------------------------|
B|----------------------------------|----------------------------------|
G|----------------------------------|--9-----------8-----------6-------|
D|----------------------------------|----------------------------------|
A|----------------------------------|----------------------------------|
E|----------------------------------|----------------------------------|

    1   +   2   +   3   +   4   +      1   +   2   +   3   +   4   +
e|----------------------------------|----------------------------------|
B|----------------------------------|----------------------------------|
G|----------------------------------|----------------------------------|
D|------9-----------9---------------|----------------------------------|
A|----------------------------------|----------------------------------|
E|----------------------------------|----------------------------------|

    1   +   2   +   3   +   4   +      1   +   2   +   3   +   4   +
e|----------------------------------|----------------------------------|
B|----------------------------------|----------------------------------|
G|----------------------------------|----------------------------------|
D|--8-------------------------------|----------------------------------|
A|----------------------------------|----------------------------------|
E|----------------------------------|----------------------------------|

    1   +   2   +   3   +   4   +      1   +   2   +   3   +   4   +
e|----------------------------------|----------------------------------|
B|----------------------------------|----------------------------------|
G|----------------------------------|----------------------------------|
D|--6-------------------------------|----------------------------------|
A|----------------------------------|----------------------------------|
E|----------------------------------|----------------------------------|

    1   +   2   +   3   +   4   +   5   +   6   +      1   +   2   +   3   +   4   +   5   +   6   +
e|--------------------------4-------4---4-----------|--------------------------4-------4---4-----------|
B|--------------------------4-------4---4---4---4---|--------------------------4-------4---4---4---4---|
G|----------------------4---4-------4---4---4---4---|----------------------4---4-------4---4---4---4---|
D|--6-------6---6---6---6---6-------6---6---6---6---|--6-------6---6---6---6---6-------6---6---6---6---|
A|--6-------6---6---6---6-------------------6---6---|--6-------6---6---6---6-------------------6---6---|
E|--4-------4---4---4---4---------------------------|--4-------4---4---4---4---------------------------|

    1   +   2   +   3   +   4   +   5   +   6   +      1   +   2   +   3   +   4   +   5   +   6   +
e|--------------------------0-------0---0-----------|--------------------------0-------0---0-----------|
B|--------------------------0-------0---0---0---0---|--------------------------0-------0---0---0---0---|
G|----------------------8---8-------8---8---8---8---|----------------------8---8-------8---8---8---8---|
D|--9-------9---9---9---9---9-------9---9---9---9---|--9-------9---9---9---9---9-------9---9---9---9---|
A|--9-------9---9---9---9-------------------9---9---|--9-------9---9---9---9-------------------9---9---|
E|--7-------7---7---7---7---------------------------|--7-------7---7---7---7---------------------------|

    1   +   2   +   3   +   4   +   5   +   6   +      1   +   2   +   3   +   4   +   5   +   6   +
e|--------------------------2-------2---2-----------|--------------------------2-------2---2-------0---|
B|--------------------------2-------2---2---2---2---|--------------------------2-------2---2---2---0---|
G|----------------------3---3-------3---3---3---3---|----------------------3---3-------3---3---3-------|
D|--4-------4---4---4---4---4-------4---4---4---4---|--4-------4---4---4---4---4-------4---4---4-------|
A|--4-------4---4---4---4-------------------4---4---|--4-------4---4---4---4-------------------4-------|
E|--2-------2---2---2---2---------------------------|--2-------2---2---2---2---------------------------|

    1   +   2   +   3   +   4   +   5   +   6   +      1   +   2   +   3   +   4   +   5   +   6   +
e|--------------------------0-------0---0-----------|--------------------------0-------0---0-----------|
B|--------------------------0-------0---0---0---0---|--------------------------0-------0---0---0---0---|
G|--1-------------------1---1-------1---1---1---1---|--1-------------------1---1-------1---1---1---1---|
D|--2-------2---2---2---2---2-------2---2---2---2---|--2-------2---2---2---2---2-------2---2---2---2---|
A|--2-------2---2---2---2-------------------2---2---|--2-------2---2---2---2-------------------2---2---|
E|--0-------0---0---0---0---------------------------|--0-------0---0---0---0---------------------------|

    1   +   2   +   3   +   4   +   5   +   6   +      1   +   2   +   3   +   4   +   5   +   6   +
e|--------------------------4-------4---4-----------|--------------------------4-------4---4-----------|
B|--------------------------4-------4---4---4---4---|--------------------------4-------4---4---4---4---|
G|----------------------4---4-------4---4---4---4---|----------------------4---4-------4---4---4---4---|
D|--6-------6---6---6---6---6-------6---6---6---6---|--6-------6---6---6---6---6-------6---6---6---6---|
A|--6-------6---6---6---6-------------------6---6---|--6-------6---6---6---6-------------------6---6---|
E|--4-------4---4---4---4---------------------------|--4-------4---4---4---4---------------------------|

    1   +   2   +   3   +   4   +   5   +   6   +      1   +   2   +   3   +   4   +   5   +   6   +
e|--------------------------0-------0---0-----------|--------------------------0-------0---0-----------|
B|--------------------------0-------0---0---0---0---|--------------------------0-------0---0---0---0---|
G|----------------------8---8-------8---8---8---8---|----------------------8---8-------8---8---8---8---|
D|--9-------9---9---9---9---9-------9---9---9---9---|--9-------9---9---9---9---9-------9---9---9---9---|
A|--9-------9---9---9---9-------------------9---9---|--9-------9---9---9---9-------------------9---9---|
E|--7-------7---7---7---7---------------------------|--7-------7---7---7---7---------------------------|

    1   +   2   +   3   +   4   +   5   +   6   +      1   +   2   +   3   +   4   +   5   +   6   +
e|--------------------------2-------2---2-----------|--------------------------2-------2---2-------0---|
B|--------------------------2-------2---2---2---2---|--------------------------2-------2---2---2---0---|
G|----------------------3---3-------3---3---3---3---|----------------------3---3-------3---3---3-------|
D|--4-------4---4---4---4---4-------4---4---4---4---|--4-------4---4---4---4---4-------4---4---4-------|
A|--4-------4---4---4---4-------------------4---4---|--4-------4---4---4---4-------------------4-------|
E|--2-------2---2---2---2---------------------------|--2-------2---2---2---2---------------------------|

    1   +   2   +   3   +   4   +   5   +   6   +      1   +   2   +   3   +   4   +   5   +   6   +
e|--------------------------0-------0---0-----------|--------------------------0-------0---0-----------|
B|--------------------------0-------0---0---0---0---|--------------------------0-------0---0---0---0---|
G|--1-------------------1---1-------1---1---1---1---|--1-------------------1---1-------1---1---1---1---|
D|--2-------2---2---2---2---2-------2---2---2---2---|--2-------2---2---2---2---2-------2---2---2---2---|
A|--2-------2---2---2---2-------------------2---2---|--2-------2---2---2---2-------------------2---2---|
E|--0-------0---0---0---0---------------------------|--0-------0---0---0---0---------------------------|

    1   +   2   +   3   +   4   +   5   +   6   +      1   +   2   +   3   +   4   +   5   +   6   +
e|--------------------------4-------4---4-----------|--------------------------4-------4---4-----------|
B|--------------------------4-------4---4---4---4---|--------------------------4-------4---4---4---4---|
G|----------------------4---4-------4---4---4---4---|----------------------4---4-------4---4---4---4---|
D|--6-------6---6---6---6---6-------6---6---6---6---|--6-------6---6---6---6---6-------6---6---6---6---|
A|--6-------6---6---6---6-------------------6---6---|--6-------6---6---6---6-------------------6---6---|
E|--4-------4---4---4---4---------------------------|--4-------4---4---4---4---------------------------|

    1   +   2   +   3   +   4   +   5   +   6   +      1   +   2   +   3   +   4   +   5   +   6   +
e|--------------------------0-------0---0-----------|--------------------------0-------0---0-----------|
B|--------------------------0-------0---0---0---0---|--------------------------0-------0---0---0---0---|
G|----------------------8---8-------8---8---8---8---|----------------------8---8-------8---8---8---8---|
D|--9-------9---9---9---9---9-------9---9---9---9---|--9-------9---9---9---9---9-------9---9---9---9---|
A|--9-------9---9---9---9-------------------9---9---|--9-------9---9---9---9-------------------9---9---|
E|--7-------7---7---7---7---------------------------|--7-------7---7---7---7---------------------------|

    1   +   2   +   3   +   4   +   5   +   6   +      1   +   2   +   3   +   4   +   5   +   6   +
e|--------------------------2-------2---2-----------|--------------------------2-------2---2-------0---|
B|--------------------------2-------2---2---2---2---|--------------------------2-------2---2---2---0---|
G|----------------------3---3-------3---3---3---3---|----------------------3---3-------3---3---3-------|
D|--4-------4---4---4---4---4-------4---4---4---4---|--4-------4---4---4---4---4-------4---4---4-------|
A|--4-------4---4---4---4-------------------4---4---|--4-------4---4---4---4-------------------4-------|
E|--2-------2---2---2---2---------------------------|--2-------2---2---2---2---------------------------|

    1   +   2   +   3   +   4   +   5   +   6   +      1   +   2   +   3   +   4   +   5   +   6   +
e|--------------------------0-------0---0-----------|--------------------------0-------0---0-----------|
B|--------------------------0-------0---0---0---0---|--------------------------0-------0---0---0---0---|
G|--1-------------------1---1-------1---1---1---1---|--1-------------------1---1-------1---1---1---1---|
D|--2-------2---2---2---2---2-------2---2---2---2---|--2-------2---2---2---2---2-------2---2---2---2---|
A|--2-------2---2---2---2-------------------2---2---|--2-------2---2---2---2-------------------2---2---|
E|--0-------0---0---0---0---------------------------|--0-------0---0---0---0---------------------------|

    1   +   2   +   3   +   4   +   5   +   6   +      1   +   2   +   3   +   4   +   5   +   6   +
e|--------------------------4-------4---4-----------|--------------------------4-------4---4-----------|
B|--------------------------4-------4---4---4---4---|--------------------------4-------4---4---4---4---|
G|----------------------4---4-------4---4---4---4---|----------------------4---4-------4---4---4---4---|
D|--6-------6---6---6---6---6-------6---6---6---6---|--6-------6---6---6---6---6-------6---6---6---6---|
A|--6-------6---6---6---6-------------------6---6---|--6-------6---6---6---6-------------------6---6---|
E|--4-------4---4---4---4---------------------------|--4-------4---4---4---4---------------------------|

    1   +   2   +   3   +   4   +   5   +   6   +      1   +   2   +   3   +   4   +   5   +   6   +
e|--------------------------0-------0---0-----------|--------------------------0-------0---0-----------|
B|--------------------------0-------0---0---0---0---|--------------------------0-------0---0---0---0---|
G|----------------------8---8-------8---8---8---8---|----------------------8---8-------8---8---8---8---|
D|--9-------9---9---9---9---9-------9---9---9---9---|--9-------9---9---9---9---9-------9---9---9---9---|
A|--9-------9---9---9---9-------------------9---9---|--9-------9---9---9---9-------------------9---9---|
E|--7-------7---7---7---7---------------------------|--7-------7---7---7---7---------------------------|

    1   +   2   +   3   +   4   +   5   +   6   +      1   +   2   +   3   +   4   +   5   +   6   +
e|--------------------------2-------2---2-----------|--------------------------2-------2---2-------0---|
B|--------------------------2-------2---2---2---2---|--------------------------2-------2---2---2---0---|
G|----------------------3---3-------3---3---3---3---|----------------------3---3-------3---3---3-------|
D|--4-------4---4---4---4---4-------4---4---4---4---|--4-------4---4---4---4---4-------4---4---4-------|
A|--4-------4---4---4---4-------------------4---4---|--4-------4---4---4---4-------------------4-------|
E|--2-------2---2---2---2---------------------------|--2-------2---2---2---2---------------------------|

    1   +   2   +   3   +   4   +   5   +   6   +      1   +   2   +   3   +   4   +   5   +   6   +
e|--------------------------0-------0---0-----------|--------------------------0-------0---0-----------|
B|--------------------------0-------0---0---0---0---|--------------------------0-------0---0---0---0---|
G|--1-------------------1---1-------1---1---1---1---|--1-------------------1---1-------1---1---1---1---|
D|--2-------2---2---2---2---2-------2---2---2---2---|--2-------2---2---2---2---2-------2---2---2---2---|
A|--2-------2---2---2---2-------------------2---2---|--2-------2---2---2---2-------------------2---2---|
E|--0-------0---0---0---0---------------------------|--0-------0---0---0---0---------------------------|

    1   +   2   +   3   +   4   +   5   +   6   +      1   +   2   +   3   +   4   +   5   +   6   +
e|--------------------------4-------4---4-----------|--------------------------4-------4---4-----------|
B|--------------------------4-------4---4---4---4---|--------------------------4-------4---4---4---4---|
G|----------------------4---4-------4---4---4---4---|----------------------4---4-------4---4---4---4---|
D|--6-------6---6---6---6---6-------6---6---6---6---|--6-------6---6---6---6---6-------6---6---6---6---|
A|--6-------6---6---6---6-------------------6---6---|--6-------6---6---6---6-------------------6---6---|
E|--4-------4---4---4---4---------------------------|--4-------4---4---4---4---------------------------|

    1   +   2   +   3   +   4   +   5   +   6   +      1   +   2   +   3   +   4   +   5   +   6   +
e|--------------------------0-------0---0-----------|--------------------------0-------0---0-----------|
B|--------------------------0-------0---0---0---0---|--------------------------0-------0---0---0---0---|
G|----------------------8---8-------8---8---8---8---|----------------------8---8-------8---8---8---8---|
D|--9-------9---9---9---9---9-------9---9---9---9---|--9-------9---9---9---9---9-------9---9---9---9---|
A|--9-------9---9---9---9-------------------9---9---|--9-------9---9---9---9-------------------9---9---|
E|--7-------7---7---7---7---------------------------|--7-------7---7---7---7---------------------------|

    1   +   2   +   3   +   4   +   5   +   6   +      1   +   2   +   3   +   4   +   5   +   6   +
e|--------------------------2-------2---2-----------|--------------------------2-------2---2-------0---|
B|--------------------------2-------2---2---2---2---|--------------------------2-------2---2---2---0---|
G|----------------------3---3-------3---3---3---3---|----------------------3---3-------3---3---3-------|
D|--4-------4---4---4---4---4-------4---4---4---4---|--4-------4---4---4---4---4-------4---4---4-------|
A|--4-------4---4---4---4-------------------4---4---|--4-------4---4---4---4-------------------4-------|
E|--2-------2---2---2---2---------------------------|--2-------2---2---2---2---------------------------|

    1   +   2   +   3   +   4   +   5   +   6   +      1   +   2   +   3   +   4   +   5   +   6   +
e|--------------------------0-------0---0-----------|--------------------------0-------0---0-----------|
B|--------------------------0-------0---0---0---0---|--------------------------0-------0---0---0---0---|
G|--1-------------------1---1-------1---1---1---1---|--1-------------------1---1-------1---1---1---1---|
D|--2-------2---2---2---2---2-------2---2---2---2---|--2-------2---2---2---2---2-------2---2---2---2---|
A|--2-------2---2---2---2-------------------2---2---|--2-------2---2---2---2-------------------2---2---|
E|--0-------0---0---0---0---------------------------|--0-------0---0---0---0---------------------------|

    1   +   2   +   3   +   4   +   5   +   6   +      1   +   2   +   3   +   4   +   5   +   6   +
e|--------------------------4-------4---4-----------|--------------------------4-------4---4-----------|
B|--------------------------4-------4---4---4---4---|--------------------------4-------4---4---4---4---|
G|----------------------4---4-------4---4---4---4---|----------------------4---4-------4---4---4---4---|
D|--6-------6---6---6---6---6-------6---6---6---6---|--6-------6---6---6---6---6-------6---6---6---6---|
A|--6-------6---6---6---6-------------------6---6---|--6-------6---6---6---6-------------------6---6---|
E|--4-------4---4---4---4---------------------------|--4-------4---4---4---4---------------------------|

    1   +   2   +   3   +   4   +   5   +   6   +      1   +   2   +   3   +   4   +   5   +   6   +
e|--------------------------0-------0---0-----------|--------------------------0-------0---0-----------|
B|--------------------------0-------0---0---0---0---|--------------------------0-------0---0---0---0---|
G|----------------------8---8-------8---8---8---8---|----------------------8---8-------8---8---8---8---|
D|--9-------9---9---9---9---9-------9---9---9---9---|--9-------9---9---9---9---9-------9---9---9---9---|
A|--9-------9---9---9---9-------------------9---9---|--9-------9---9---9---9-------------------9---9---|
E|--7-------7---7---7---7---------------------------|--7-------7---7---7---7---------------------------|

    1   +   2   +   3   +   4   +   5   +   6   +      1   +   2   +   3   +   4   +   5   +   6   +
e|--------------------------2-------2---2-----------|--------------------------2-------2---2-------0---|
B|--------------------------2-------2---2---2---2---|--------------------------2-------2---2---2---0---|
G|----------------------3---3-------3---3---3---3---|----------------------3---3-------3---3---3-------|
D|--4-------4---4---4---4---4-------4---4---4---4---|--4-------4---4---4---4---4-------4---4---4-------|
A|--4-------4---4---4---4-------------------4---4---|--4-------4---4---4---4-------------------4-------|
E|--2-------2---2---2---2---------------------------|--2-------2---2---2---2---------------------------|

    1   +   2   +   3   +   4   +   5   +   6   +      1   +   2   +   3   +   4   +   5   +   6   +
e|--------------------------0-------0---0-----------|--------------------------0-------0---0-----------|
B|--------------------------0-------0---0---0---0---|--------------------------0-------0---0---0---0---|
G|--1-------------------1---1-------1---1---1---1---|--1-------------------1---1-------1---1---1---1---|
D|--2-------2---2---2---2---2-------2---2---2---2---|--2-------2---2---2---2---2-------2---2---2---2---|
A|--2-------2---2---2---2-------------------2---2---|--2-------2---2---2---2-------------------2---2---|
E|--0-------0---0---0---0---------------------------|--0-------0---0---0---0---------------------------|

    1   +   2   +   3   +   4   +   5   +   6   +      1   +   2   +   3   +   4   +   5   +   6   +
e|--------------------------4-------4---4-----------|--------------------------4-------4---4-----------|
B|--------------------------4-------4---4---4---4---|--------------------------4-------4---4---4---4---|
G|----------------------4---4-------4---4---4---4---|----------------------4---4-------4---4---4---4---|
D|--6-------6---6---6---6---6-------6---6---6---6---|--6-------6---6---6---6---6-------6---6---6---6---|
A|--6-------6---6---6---6-------------------6---6---|--6-------6---6---6---6-------------------6---6---|
E|--4-------4---4---4---4---------------------------|--4-------4---4---4---4---------------------------|

    1   +   2   +   3   +   4   +   5   +   6   +      1   +   2   +   3   +   4   +   5   +   6   +
e|--------------------------0-------0---0-----------|--------------------------0-------0---0-----------|
B|--------------------------0-------0---0---0---0---|--------------------------0-------0---0---0---0---|
G|----------------------8---8-------8---8---8---8---|----------------------8---8-------8---8---8---8---|
D|--9-------9---9---9---9---9-------9---9---9---9---|--9-------9---9---9---9---9-------9---9---9---9---|
A|--9-------9---9---9---9-------------------9---9---|--9-------9---9---9---9-------------------9---9---|
E|--7-------7---7---7---7---------------------------|--7-------7---7---7---7---------------------------|

    1   +   2   +   3   +   4   +   5   +   6   +      1   +   2   +   3   +   4   +   5   +   6   +
e|--------------------------2-------2---2-----------|--------------------------2-------2---2-------0---|
B|--------------------------2-------2---2---2---2---|--------------------------2-------2---2---2---0---|
G|----------------------3---3-------3---3---3---3---|----------------------3---3-------3---3---3-------|
D|--4-------4---4---4---4---4-------4---4---4---4---|--4-------4---4---4---4---4-------4---4---4-------|
A|--4-------4---4---4---4-------------------4---4---|--4-------4---4---4---4-------------------4-------|
E|--2-------2---2---2---2---------------------------|--2-------2---2---2---2---------------------------|

    1   +   2   +   3   +   4   +   5   +   6   +      1   +   2   +   3   +   4   +   5   +   6   +
e|--------------------------0-------0---0-----------|--------------------------0-------0---0-----------|
B|--------------------------0-------0---0---0---0---|--------------------------0-------0---0---0---0---|
G|--1-------------------1---1-------1---1---1---1---|--1-------------------1---1-------1---1---1---1---|
D|--2-------2---2---2---2---2-------2---2---2---2---|--2-------2---2---2---2---2-------2---2---2---2---|
A|--2-------2---2---2---2-------------------2---2---|--2-------2---2---2---2-------------------2---2---|
E|--0-------0---0---0---0---------------------------|--0-------0---0---0---0---------------------------|

[Guitar 1]
    1   +   2   +   3   +   4   +   5   +   6   +      1   +   2   +   3   +   4   +   5   +   6   +
e|--------------------------4-------4---4-----------|--------------------------4-------4---4-----------|
B|--------------------------4-------4---4---4---4---|--------------------------4-------4---4---4---4---|
G|----------------------4---4-------4---4---4---4---|----------------------4---4-------4---4---4---4---|
D|--6-------6---6---6---6---6-------6---6---6---6---|--6-------6---6---6---6---6-------6---6---6---6---|
A|--6-------6---6---6---6-------------------6---6---|--6-------6---6---6---6-------------------6---6---|
E|--4-------4---4---4---4---------------------------|--4-------4---4---4---4---------------------------|
                                                                                                       |
[Guitar 2]                                                                                              |
    1   +   2   +   3   +   4   +   5   +   6   +      1   +   2   +   3   +   4   +   5   +   6   +   |
e|--------------------------------------------------|--------------------------------------------------|
B|--------------------------------------------------|--------------------------------------------------|
G|--------------------------------------------------|--------------------------------------------------|
D|--6-----------------------------------------------|--------------------------6-----------------------|
A|--6-----------------------------------------------|--------------------------6-----------------------|
E|--4-----------------------------------------------|--------------------------4-----------------------|

[Guitar 1]
    1   +   2   +   3   +   4   +   5   +   6   +      1   +   2   +   3   +   4   +   5   +   6   +
e|--------------------------0-------0---0-----------|--------------------------0-------0---0-----------|
B|--------------------------0-------0---0---0---0---|--------------------------0-------0---0---0---0---|
G|----------------------8---8-------8---8---8---8---|----------------------8---8-------8---8---8---8---|
D|--9-------9---9---9---9---9-------9---9---9---9---|--9-------9---9---9---9---9-------9---9---9---9---|
A|--9-------9---9---9---9-------------------9---9---|--9-------9---9---9---9-------------------9---9---|
E|--7-------7---7---7---7---------------------------|--7-------7---7---7---7---------------------------|
                                                                                                       |
[Guitar 2]                                                                                              |
    1   +   2   +   3   +   4   +   5   +   6   +      1   +   2   +   3   +   4   +   5   +   6   +   |
e|--------------------------------------------------|--------------------------------------------------|
B|--------------------------------------------------|--------------------------------------------------|
G|--------------------------------------------------|--------------------------------------------------|
D|--9-----------------------------------------------|--------------------------9-----------------------|
A|--9-----------------------------------------------|--------------------------9-----------------------|
E|--7-----------------------------------------------|--------------------------7-----------------------|

[Guitar 1]
    1   +   2   +   3   +   4   +   5   +   6   +      1   +   2   +   3   +   4   +   5   +   6   +
e|--------------------------2-------2---2-----------|--------------------------2-------2---2-------0---|
B|--------------------------2-------2---2---2---2---|--------------------------2-------2---2---2---0---|
G|----------------------3---3-------3---3---3---3---|----------------------3---3-------3---3---3-------|
D|--4-------4---4---4---4---4-------4---4---4---4---|--4-------4---4---4---4---4-------4---4---4-------|
A|--4-------4---4---4---4-------------------4---4---|--4-------4---4---4---4-------------------4-------|
E|--2-------2---2---2---2---------------------------|--2-------2---2---2---2---------------------------|
                                                                                                       |
[Guitar 2]                                                                                              |
    1   +   2   +   3   +   4   +   5   +   6   +      1   +   2   +   3   +   4   +   5   +   6   +   |
e|--------------------------------------------------|--------------------------------------------------|
B|--------------------------------------------------|--------------------------------------------------|
G|--------------------------------------------------|--------------------------------------------------|
D|--4-----------------------------------------------|--------------------------4-----------------------|
A|--4-----------------------------------------------|--------------------------4-----------------------|
E|--2-----------------------------------------------|--------------------------2-----------------------|

[Guitar 1]
    1   +   2   +   3   +   4   +   5   +   6   +      1   +   2   +   3   +   4   +   5   +   6   +
e|--------------------------0-------0---0-----------|--------------------------0-------0---0-----------|
B|--------------------------0-------0---0---0---0---|--------------------------0-------0---0---0---0---|
G|--1-------------------1---1-------1---1---1---1---|--1-------------------1---1-------1---1---1---1---|
D|--2-------2---2---2---2---2-------2---2---2---2---|--2-------2---2---2---2---2-------2---2---2---2---|
A|--2-------2---2---2---2-------------------2---2---|--2-------2---2---2---2-------------------2---2---|
E|--0-------0---0---0---0---------------------------|--0-------0---0---0---0---------------------------|
                                                                                                       |
[Guitar 2]                                                                                              |
    1   +   2   +   3   +   4   +   5   +   6   +      1   +   2   +   3   +   4   +   5   +   6   +   |
e|--------------------------------------------------|--------------------------------------------------|
B|--------------------------5-----------------------|--------------------------------------------------|
G|--------------------------4-----------------------|--------------------------------------------------|
D|--2-----------------------------------------------|--------------------------------------------------|
A|--2-----------------------------------------------|--------------------------------------------------|
E|--0-----------------------------------------------|--------------------------------------------------|

[Guitar 1]
    1   +   2   +   3   +   4   +   5   +   6   +      1   +   2   +   3   +   4   +   5   +   6   +
e|--------------------------4-------4---4-----------|--------------------------4-------4---4-----------|
B|--------------------------4-------4---4---4---4---|--------------------------4-------4---4---4---4---|
G|----------------------4---4-------4---4---4---4---|----------------------4---4-------4---4---4---4---|
D|--6-------6---6---6---6---6-------6---6---6---6---|--6-------6---6---6---6---6-------6---6---6---6---|
A|--6-------6---6---6---6-------------------6---6---|--6-------6---6---6---6-------------------6---6---|
E|--4-------4---4---4---4---------------------------|--4-------4---4---4---4---------------------------|
                                                                                                       |
[Guitar 2]                                                                                              |
    1   +   2   +   3   +   4   +   5   +   6   +      1   +   2   +   3   +   4   +   5   +   6   +   |
e|--------------------------------------------------|--------------------------------------------------|
B|--------------------------------------------------|--------------------------------------------------|
G|--------------------------------------------------|--------------------------------------------------|
D|--6-----------------------------------------------|--------------------------6-----------------------|
A|--6-----------------------------------------------|--------------------------6-----------------------|
E|--4-----------------------------------------------|--------------------------4-----------------------|

[Guitar 1]
    1   +   2   +   3   +   4   +   5   +   6   +      1   +   2   +   3   +   4   +   5   +   6   +
e|--------------------------2-------2---2-------0---|--------------------------0-------0---0-----------|
B|--------------------------2-------2---2---2---0---|--------------------------0-------0---0---0---0---|
G|----------------------3---3-------3---3---3-------|----------------------8---8-------8---8---8---8---|
D|--4-------4---4---4---4---4-------4---4---4-------|--9-------9---9---9---9---9-------9---9---9---9---|
A|--4-------4---4---4---4-------------------4-------|--9-------9---9---9---9-------------------9---9---|
E|--2-------2---2---2---2---------------------------|--7-------7---7---7---7---------------------------|
                                                                                                       |
[Guitar 2]                                                                                              |
    1   +   2   +   3   +   4   +   5   +   6   +      1   +   2   +   3   +   4   +   5   +   6   +   |
e|--------------------------------------------------|--------------------------------------------------|
B|--------------------------------------------------|--------------------------------------------------|
G|--------------------------------------------------|--------------------------------------------------|
D|--------------------------------------------------|--9-----------------------9-----------------------|
A|--------------------------------------------------|--9-----------------------7-----------------------|
E|--6v----------------------------------------------|--7-----------------------7-----------------------|

[Guitar 1]
    1   +   2   +   3   +   4   +   5   +   6   +      1   +   2   +   3   +   4   +   5   +   6   +
e|--------------------------0-------0---0-----------|--------------------------2-------2---2-------0---|
B|--------------------------0-------0---0---0---0---|--------------------------2-------2---2---2---0---|
G|--1-------------------1---1-------1---1---1---1---|--1-------------------1---3-------3---3---3-------|
D|--2-------2---2---2---2---2-------2---2---2---2---|--2-------2---2---2---2---4-------4---4---4-------|
A|--2-------2---2---2---2-------------------2---2---|--2-------2---2---2---2-------------------4-------|
E|--0-------0---0---0---0---------------------------|--0-------0---0---0---0---------------------------|
                                                                                                       |
[Guitar 2]                                                                                              |
    1   +   2   +   3   +   4   +   5   +   6   +      1   +   2   +   3   +   4   +   5   +   6   +   |
e|--------------------------------------------------|--------------------------------------------------|
B|--------------------------5-----------------------|--------------------------------------------------|
G|--------------------------4-----------------------|--------------------------------------------------|
D|--2-----------------------------------------------|--------------------------4-----------------------|
A|--2-----------------------------------------------|--------------------------4-----------------------|
E|--0-----------------------------------------------|--------------------------2-----------------------|

[Guitar 1]
    1   +   2   +   3   +   4   +   5   +   6   +      1   +   2   +   3   +   4   +   5   +   6   +
e|--------------------------0-------0---0-----------|--------------------------2-------2---2-------0---|
B|--------------------------0-------0---0---0---0---|--------------------------2-------2---2---2---0---|
G|--1-------------------1---1-------1---1---1---1---|--1-------------------1---3-------3---3---3-------|
D|--2-------2---2---2---2---2-------2---2---2---2---|--2-------2---2---2---2---4-------4---4---4-------|
A|--2-------2---2---2---2-------------------2---2---|--2-------2---2---2---2-------------------4-------|
E|--0-------0---0---0---0---------------------------|--0-------0---0---0---0---------------------------|
                                                                                                       |
[Guitar 2]                                                                                              |
    1   +   2   +   3   +   4   +   5   +   6   +      1   +   2   +   3   +   4   +   5   +   6   +   |
e|--------------------------------------------------|--------------------------------------------------|
B|--------------------------5-----------------------|--------------------------------------------------|
G|--------------------------4-----------------------|--------------------------------------------------|
D|--2-----------------------------------------------|--------------------------4-----------------------|
A|--2-----------------------------------------------|--------------------------4-----------------------|
E|--0-----------------------------------------------|--------------------------2-----------------------|

[Guitar 1]
    1   +   2   +   3   +   4   +   5   +   6   +      1   +   2   +   3   +   4   +   5   +   6   +
e|--------------------------4-------4---4-----------|--------------------------4-------4---4-----------|
B|--------------------------4-------4---4---4---4---|--------------------------4-------4---4---4---4---|
G|----------------------4---4-------4---4---4---4---|----------------------4---4-------4---4---4---4---|
D|--6-------6---6---6---6---6-------6---6---6---6---|--6-------6---6---6---6---6-------6---6---6---6---|
A|--6-------6---6---6---6-------------------6---6---|--6-------6---6---6---6-------------------6---6---|
E|--4-------4---4---4---4---------------------------|--4-------4---4---4---4---------------------------|
                                                                                                       |
[Guitar 2]                                                                                              |
    1   +   2   +   3   +   4   +   5   +   6   +      1   +   2   +   3   +   4   +   5   +   6   +   |
e|--------------------------------------------------|--------------------------------------------------|
B|--------------------------------------------------|--------------------------------------------------|
G|--------------------------------------------------|--------------------------------------------------|
D|--6-----------------------------------------------|--------------------------6-----------------------|
A|--6-----------------------------------------------|--------------------------6-----------------------|
E|--4-----------------------------------------------|--------------------------4-----------------------|

[Guitar 1]
    1   +   2   +   3   +   4   +   5   +   6   +      1   +   2   +   3   +   4   +   5   +   6   +
e|--------------------------0-------0---0-----------|--------------------------0-------0---0-----------|
B|--------------------------0-------0---0---0---0---|--------------------------0-------0---0---0---0---|
G|----------------------8---8-------8---8---8---8---|----------------------8---8-------8---8---8---8---|
D|--9-------9---9---9---9---9-------9---9---9---9---|--9-------9---9---9---9---9-------9---9---9---9---|
A|--9-------9---9---9---9-------------------9---9---|--9-------9---9---9---9-------------------9---9---|
E|--7-------7---7---7---7---------------------------|--7-------7---7---7---7---------------------------|
                                                                                                       |
[Guitar 2]                                                                                              |
    1   +   2   +   3   +   4   +   5   +   6   +      1   +   2   +   3   +   4   +   5   +   6   +   |
e|--------------------------------------------------|--------------------------------------------------|
B|--------------------------------------------------|--------------------------------------------------|
G|--------------------------------------------------|--------------------------------------------------|
D|--9-----------------------------------------------|--------------------------9-----------------------|
A|--9-----------------------------------------------|--------------------------9-----------------------|
E|--7-----------------------------------------------|--------------------------7-----------------------|

[Guitar 1]
    1   +   2   +   3   +   4   +   5   +   6   +      1   +   2   +   3   +   4   +   5   +   6   +
e|--------------------------2-------2---2-----------|--------------------------2-------2---2-------0---|
B|--------------------------2-------2---2---2---2---|--------------------------2-------2---2---2---0---|
G|----------------------3---3-------3---3---3---3---|----------------------3---3-------3---3---3-------|
D|--4-------4---4---4---4---4-------4---4---4---4---|--4-------4---4---4---4---4-------4---4---4-------|
A|--4-------4---4---4---4-------------------4---4---|--4-------4---4---4---4-------------------4-------|
E|--2-------2---2---2---2---------------------------|--2-------2---2---2---2---------------------------|
                                                                                                       |
[Guitar 2]                                                                                              |
    1   +   2   +   3   +   4   +   5   +   6   +      1   +   2   +   3   +   4   +   5   +   6   +   |
e|--------------------------------------------------|--------------------------------------------------|
B|--------------------------------------------------|--------------------------------------------------|
G|--------------------------------------------------|--------------------------------------------------|
D|--4-----------------------------------------------|--------------------------4-----------------------|
A|--4-----------------------------------------------|--------------------------4-----------------------|
E|--2-----------------------------------------------|--------------------------2-----------------------|

[Guitar 1]
    1   +   2   +   3   +   4   +   5   +   6   +      1   +   2   +   3   +   4   +   5   +   6   +
e|--------------------------0-------0---0-----------|--------------------------2-------2---2-------0---|
B|--------------------------0-------0---0---0---0---|--------------------------2-------2---2---2---0---|
G|--1-------------------1---1-------1---1---1---1---|--1-------------------1---3-------3---3---3-------|
D|--2-------2---2---2---2---2-------2---2---2---2---|--2-------2---2---2---2---4-------4---4---4-------|
A|--2-------2---2---2---2-------------------2---2---|--2-------2---2---2---2-------------------4-------|
E|--0-------0---0---0---0---------------------------|--0-------0---0---0---0---------------------------|
                                                                                                       |
[Guitar 2]                                                                                              |
    1   +   2   +   3   +   4   +   5   +   6   +      1   +   2   +   3   +   4   +   5   +   6   +   |
e|--------------------------------------------------|--------------------------------------------------|
B|--------------------------5-----------------------|--------------------------------------------------|
G|--------------------------4-----------------------|--------------------------------------------------|
D|--2-----------------------------------------------|--------------------------------------------------|
A|--2-----------------------------------------------|--------------------------------------------------|
E|--0-----------------------------------------------|--------------------------------------------------|

[Guitar 1]
    1   +   2   +   3   +   4   +   5   +   6   +      1   +   2   +   3   +   4   +   5   +   6   +
e|--------------------------4-------4---4-----------|--------------------------4-------4---4-----------|
B|--------------------------4-------4---4---4---4---|--------------------------4-------4---4---4---4---|
G|----------------------4---4-------4---4---4---4---|----------------------4---4-------4---4---4---4---|
D|--6-------6---6---6---6---6-------6---6---6---6---|--6-------6---6---6---6---6-------6---6---6---6---|
A|--6-------6---6---6---6-------------------6---6---|--6-------6---6---6---6-------------------6---6---|
E|--4-------4---4---4---4---------------------------|--4-------4---4---4---4---------------------------|
                                                                                                       |
[Guitar 2]                                                                                              |
    1   +   2   +   3   +   4   +   5   +   6   +      1   +   2   +   3   +   4   +   5   +   6   +   |
e|--------------------------------------------------|--------------------------------------------------|
B|--------------------------------------------------|--------------------------------------------------|
G|--------------------------------------------------|--------------------------------------------------|
D|--6-----------------------------------------------|--------------------------6-----------------------|
A|--6-----------------------------------------------|--------------------------6-----------------------|
E|--4-----------------------------------------------|--------------------------4-----------------------|

[Guitar 1]
    1   +   2   +   3   +   4   +   5   +   6   +      1   +   2   +   3   +   4   +   5   +   6   +
e|--------------------------2-------2---2-------0---|--------------------------0-------0---0-----------|
B|--------------------------2-------2---2---2---0---|--------------------------0-------0---0---0---0---|
G|----------------------3---3-------3---3---3-------|----------------------8---8-------8---8---8---8---|
D|--4-------4---4---4---4---4-------4---4---4-------|--9-------9---9---9---9---9-------9---9---9---9---|
A|--4-------4---4---4---4-------------------4-------|--9-------9---9---9---9-------------------9---9---|
E|--2-------2---2---2---2---------------------------|--7-------7---7---7---7---------------------------|
                                                                                                       |
[Guitar 2]                                                                                              |
    1   +   2   +   3   +   4   +   5   +   6   +      1   +   2   +   3   +   4   +   5   +   6   +   |
e|--------------------------------------------------|--------------------------------------------------|
B|--------------------------------------------------|--------------------------------------------------|
G|--------------------------------------------------|--------------------------------------------------|
D|--------------------------------------------------|--9-----------------------9-----------------------|
A|--------------------------------------------------|--9-----------------------9-----------------------|
E|--6v----------------------------------------------|--7-----------------------7-----------------------|

[Guitar 1]
    1   +   2   +   3   +   4   +   5   +   6   +      1   +   2   +   3   +   4   +   5   +   6   +
e|--------------------------0-------0---0-----------|--------------------------2-------2---2-------0---|
B|--------------------------0-------0---0---0---0---|--------------------------2-------2---2---2---0---|
G|--1-------------------1---1-------1---1---1---1---|--1-------------------1---3-------3---3---3-------|
D|--2-------2---2---2---2---2-------2---2---2---2---|--2-------2---2---2---2---4-------4---4---4-------|
A|--2-------2---2---2---2-------------------2---2---|--2-------2---2---2---2-------------------4-------|
E|--0-------0---0---0---0---------------------------|--0-------0---0---0---0---------------------------|
                                                                                                       |
[Guitar 2]                                                                                              |
    1   +   2   +   3   +   4   +   5   +   6   +      1   +   2   +   3   +   4   +   5   +   6   +   |
e|--------------------------------------------------|--------------------------------------------------|
B|--------------------------5-----------------------|--------------------------------------------------|
G|--------------------------4-----------------------|--------------------------------------------------|
D|--2-----------------------------------------------|--------------------------4-----------------------|
A|--2-----------------------------------------------|--------------------------4-----------------------|
E|--0-----------------------------------------------|--------------------------2-----------------------|

[Guitar 1]
    1   +   2   +   3   +   4   +   5   +   6   +      1   +   2   +   3   +   4   +   5   +   6   +
e|--------------------------0-------0---0-----------|--------------------------2-------2---2-------0---|
B|--------------------------0-------0---0---0---0---|--------------------------2-------2---2---2---0---|
G|--1-------------------1---1-------1---1---1---1---|--1-------------------1---3-------3---3---3-------|
D|--2-------2---2---2---2---2-------2---2---2---2---|--2-------2---2---2---2---4-------4---4---4-------|
A|--2-------2---2---2---2-------------------2---2---|--2-------2---2---2---2-------------------4-------|
E|--0-------0---0---0---0---------------------------|--0-------0---0---0---0---------------------------|
                                                                                                       |
[Guitar 2]                                                                                              |
    1   +   2   +   3   +   4   +   5   +   6   +      1   +   2   +   3   +   4   +   5   +   6   +   |
e|--------------------------------------------------|--------------------------------------------------|
B|--------------------------5-----------------------|--------------------------------------------------|
G|--------------------------4-----------------------|--------------------------------------------------|
D|--2-----------------------------------------------|--------------------------------------------------|
A|--2-----------------------------------------------|--------------------------------------------------|
E|--0-----------------------------------------------|--------------------------2-----------------------|

    1   +   2   +   3   +   4   +   5   +   6   +      1   +   2   +   3   +   4   +   5   +   6   +
e|--------------------------------------------------|--------------------------------------------------|
B|------------------0-------0-----------------------|------------------0-------0-----------------------|
G|----------------------------------3---------------|----------------------------------3---------------|
D|----------4-------------------------------4-------|----------4-------------------------------4-------|
A|--------------------------------------------------|--------------------------------------------------|
E|--4-----------------------------------------------|--4-----------------------------------------------|

    1   +   2   +   3   +   4   +   5   +   6   +      1   +   2   +   3   +   4   +   5   +   6   +
e|--------------------------------------------------|--------------------------------------------------|
B|------------------0-------0-----------------------|------------------0-------0-----------------------|
G|----------------------------------3---------------|----------------------------------3---------------|
D|----------4-------------------------------4-------|----------4-------------------------------4-------|
A|--2-----------------------------------------------|--2-----------------------------------------------|
E|--------------------------------------------------|--------------------------------------------------|

    1   +   2   +   3   +   4   +   5   +   6   +      1   +   2   +   3   +   4   +   5   +   6   +
e|--------------------------------------------------|--------------------------------------------------|
B|------------------0-------0-----------------------|------------------0-------0-----------------------|
G|----------------------------------3---------------|----------------------------------3---------------|
D|----------4-------------------------------4-------|----------4-------------------------------4-------|
A|--------------------------------------------------|--------------------------------------------------|
E|--2-----------------------------------------------|--2-----------------------------------------------|

    1   +   2   +   3   +   4   +   5   +   6   +      1   +   2   +   3   +   4   +   5   +   6   +
e|--------------------------------------------------|--------------------------------------------------|
B|------------------0-------0-----------------------|------------------0-------0-----------------------|
G|----------------------------------3---------------|----------------------------------3---------------|
D|----------4-------------------------------4-------|----------4-------------------------------4-------|
A|--------------------------------------------------|--------------------------------------------------|
E|--0-----------------------------------------------|--0-----------------------------------------------|

    1   +   2   +   3   +   4   +   5   +   6   +      1   +   2   +   3   +   4   +   5   +   6   +
e|--------------------------------------------------|--------------------------------------------------|
B|------------------0-------0-----------------------|------------------0-------0-----------------------|
G|----------------------------------3---------------|----------------------------------3---------------|
D|----------4-------------------------------4-------|----------4-------------------------------4-------|
A|--------------------------------------------------|--------------------------------------------------|
E|--4-----------------------------------------------|--4-----------------------------------------------|

    1   +   2   +   3   +   4   +   5   +   6   +      1   +   2   +   3   +   4   +   5   +   6   +
e|--------------------------------------------------|--------------------------0-----------------------|
B|--------------------------------------------------|----------------------------------0---------------|
G|------------------6-------6-----------------------|------------------8-----------------------8-------|
D|--------------------------------------------------|--------------------------------------------------|
A|----------9-----------------------9---------------|----------9---------------------------------------|
E|--6---------------------------------------6-------|--7-----------------------------------------------|

    1   +   2   +   3   +   4   +   5   +   6   +      1   +   2   +   3   +   4   +   5   +   6   +
e|--------------------------------------------------|--------------------------------------------------|
B|------------------0-----------------------0-------|------------------0-------0-----------------------|
G|--------------------------------------------------|----------------------------------3---------------|
D|----------4-----------------------4---------------|----------4-------------------------------4-------|
A|--------------------------------------------------|--------------------------------------------------|
E|--0-----------------------2-----------------------|--0-----------------------------------------------|

    1   +   2   +   3   +   4   +   5   +   6   +      1   +   2   +   3   +   4   +   5   +   6   +
e|--------------------------------------------------|--------------------------------------------------|
B|------------------0-----------------------0-------|------------------0-------0-----------------------|
G|--------------------------------------------------|----------------------------------3---------------|
D|----------4-----------------------4---------------|----------4-------------------------------4-------|
A|--------------------------------------------------|--------------------------------------------------|
E|--0-----------------------2-----------------------|--4-----------------------------------------------|
                                                                                                       |
    1   +   2   +   3   +   4   +   5   +   6   +      1   +   2   +   3   +   4   +   5   +   6   +
e|--------------------------------------------------|--------------------------------------------------|
B|------------------0-------0-----------------------|------------------0-------0-----------------------|
G|----------------------------------3---------------|----------------------------------3---------------|
D|----------4-------------------------------4-------|----------4-------------------------------4-------|
A|--------------------------------------------------|--2-----------------------------------------------|
E|--4-----------------------------------------------|--------------------------------------------------|

    1   +   2   +   3   +   4   +   5   +   6   +      1   +   2   +   3   +   4   +   5   +   6   +
e|--------------------------------------------------|--------------------------------------------------|
B|------------------0-------0-----------------------|------------------0-------0-----------------------|
G|----------------------------------3---------------|----------------------------------3---------------|
D|----------4-------------------------------4-------|----------4-------------------------------4-------|
A|--2-----------------------------------------------|--------------------------------------------------|
E|--------------------------------------------------|--2-----------------------------------------------|

    1   +   2   +   3   +   4   +   5   +   6   +      1   +   2   +   3   +   4   +   5   +   6   +
e|--------------------------------------------------|--------------------------------------------------|
B|------------------0-------0-----------------------|------------------0-------0-----------------------|
G|----------------------------------3---------------|----------------------------------3---------------|
D|----------4-------------------------------4-------|----------4-------------------------------4-------|
A|--------------------------------------------------|--------------------------------------------------|
E|--2-----------------------------------------------|--0-----------------------------------------------|

    1   +   2   +   3   +   4   +   5   +   6   +      1   +   2   +   3   +   4   +   5   +   6   +
e|--------------------------------------------------|--------------------------------------------------|
B|------------------0-------0-----------------------|------------------0-------0-----------------------|
G|----------------------------------3---------------|----------------------------------3---------------|
D|----------4-------------------------------4-------|----------4-------------------------------4-------|
A|--------------------------------------------------|--------------------------------------------------|
E|--0-----------------------------------------------|--4-----------------------------------------------|
                                                                                                       |
    1   +   2   +   3   +   4   +   5   +   6   +      1   +   2   +   3   +   4   +   5   +   6   +
e|--------------------------------------------------|--------------------------------------------------|
B|------------------0-------0-----------------------|--------------------------------------------------|
G|----------------------------------3---------------|------------------6-------6-----------------------|
D|----------4-------------------------------4-------|--------------------------------------------------|
A|--------------------------------------------------|----------9-----------------------9---------------|
E|--4-----------------------------------------------|--6---------------------------------------6-------|

    1   +   2   +   3   +   4   +   5   +   6   +      1   +   2   +   3   +   4   +   5   +   6   +
e|--------------------------0-----------------------|--------------------------------------------------|
B|----------------------------------0---------------|------------------0-------0-----------------------|
G|------------------8-----------------------8-------|----------------------------------3---------------|
D|--------------------------------------------------|----------4-------------------------------4-------|
A|----------9---------------------------------------|--------------------------------------------------|
E|--7-----------------------------------------------|--0-----------------------------------------------|

    1   +   2   +   3   +   4   +   5   +   6   +      1   +   2   +   3   +   4   +   5   +   6   +
e|--------------------------------------------------|--------------------------------------------------|
B|------------------0-----------------------0-------|------------------0-------0-----------------------|
G|--------------------------------------------------|----------------------------------3---------------|
D|----------4-----------------------4---------------|----------4-------------------------------4-------|
A|--------------------------------------------------|--------------------------------------------------|
E|--0-----------------------2-----------------------|--0-----------------------------------------------|

    1   +   2   +   3   +   4   +   5   +   6   +
e|--------------------------------------------------|
B|--------------0---------------------------0-------|
G|----------------------------------3---------------|
D|--------------------------------------------------|
A|--------------------------------------------------|
E|--0-----------------------2-----------------------|

    1   +   2   +   3   +   4   +   5   +   6   +   7   +   8   +   9   +
e|--------------------------------------------------------------------------|
B|--------------0---------------------------0-----------------------0-------|
G|----------------------------------3-----------------------3---------------|
D|--------------------------------------------------------------------------|
A|--------------------------------------------------------------------------|
E|--0-----------------------2-----------------------4-----------------------|

    1   +   2   +   3   +   4   +   5   +   6   +      1   +   2   +   3   +   4   +   5   +   6   +
e|--------------------------------------------------|--------------------------------------------------|
B|--------------0---------------------------0-------|--------------0---------------------------0-------|
G|----------------------------------3---------------|----------------------------------3---------------|
D|--------------------------------------------------|--------------------------------------------------|
A|--------------------------------------------------|--------------------------------------------------|
E|--0-----------------------2-----------------------|--0-----------------------2-----------------------|

    1   +   2   +   3   +   4   +   5   +   6   +      1   +   2   +   3   +   4   +   5   +   6   +
e|--------------------------------------------------|--------------------------------------------------|
B|------------------0-----------------------0-------|--------------0---------------------------0-------|
G|----------3-----------------------3---------------|----------------------------------3---------------|
D|--------------------------------------------------|--------------------------------------------------|
A|--------------------------1-----------------------|--------------------------------------------------|
E|--4-----------------------------------------------|--0-----------------------2-----------------------|

    1   +   2   +   3   +   4   +   5   +   6   +   7   +   8   +   9   +
e|--------------------------------------------------------------------------|
B|--------------0---------------------------0-----------------------0-------|
G|----------------------------------3-----------------------3---------------|
D|--------------------------------------------------------------------------|
A|--------------------------------------------------------------------------|
E|--0-----------------------2-----------------------4-----------------------|

    1   +   2   +   3   +   4   +   5   +   6   +      1   +   2   +   3   +   4   +   5   +   6   +
e|--------------------------------------------------|--------------------------------------------------|
B|--------------0---------------------------0-------|--------------0---------------------------0-------|
G|----------------------------------3---------------|----------------------------------3---------------|
D|--------------------------------------------------|--------------------------------------------------|
A|--------------------------------------------------|--------------------------------------------------|
E|--0-----------------------2-----------------------|--0-----------------------2-----------------------|

    1   +   2   +   3   +   4   +      1   +   2   +   3   +   4   +
e|----------------------------------|--4-------------------------------|
B|----------0-----------0-----------|--4-------------------------------|
G|------3-----------3---------------|--4-------------------------------|
D|----------------------------------|--6-------------------------------|
A|--------------1-------------------|--6-------------------------------|
E|--4-------------------------------|--4-------------------------------|




| /  slide up
| \  slide down
| h  hammer-on
| p  pull-off
| ~  vibrato
| +  harmonic
| x  Mute note
| r  rest
| b  bend
===============================================================================



************************************

| x  Dead note
| h  Hammer-on
| r  Release
| b  Bend
| /  Slide up
| \  Slide down
| (  
| )\ 
| +  
| v  
|   

************************************

            
            
Suggest correction
Creating personal tab
Creating personal tab
You can edit any tab online and save it as your Personal.

You can edit, replace or remove any tab part or add personal notes – all changes will be seen only by you.

Personal tabs can be accessed anytime from any device, even offline.
Learn more »
comments
print report bad tab
17 comments total. Showing first comments.
+3 reply
Jondy 40 Jun 15, 2009 11:23 AM

The intro huh? Nice. Can't wait to hear this beast.

0 reply
Greged 171 Jun 20, 2009 09:25 AM

Great tab man. Good ear. Big climax solo at the end? I know it's generally the same as the one from the beginning, but it would be nice if it were included. Awesome job though.

+4 reply
StratStar21 30 Jun 30, 2009 08:48 AM

awesome tab, this song is amazing. keep up the good work man

guest
You may want to rate the tab now too:
select rating
Wanna post a correction for this tab? Suggest correction