Oops, an error
Loading. Please wait.

The Dance Of Eternity bass

version 2
version 2
13,904 views 30 this week
no commentswrite comment
1 2 3 4 5
1 last vote to show rating
add to favorites
×
Save as Personal and add changes to this tab that will be seen only by you. Learn more ›
×
You can save this tab as Personal to edit and correct it or add notes. All changes will be seen only by you. Learn more »
launch autoscroll
font size
0
reset
guitar tuner
backing track
0:00
0:00
edit
Autoscroll
slow
fast
+/-
esc
set tempo
stop
Author
                           The Dance Of Eternity                       
                    Metropolis Part II: Scenes From a Memory
                               Dream Theater

Transcribed for 5 String by death.prog(Jorah Dumond)jrmdumond91@gmail.com

Standard Tuning
   B E A D G


  Phaser                                                               
  |--------3-------|                |-3-|       |-3-|                |-3-|     
  S              S S E  E  E  E  E  S S S E     S S S E  E  E  E  E  S S S E   
---------------------------------------------|--------------------------------|
---------------------------------------------|--------------------------------|
---------------------------------------------|--------------------------------|
---------------------------------------------|--------------------------------|
--3--------------3-3-3-----3-----3--3-3-3-3--|--3-3-3-3-----3-----3--3-3-3-3--|


  |-3-|                |-3-|       |-3-|                |-3-|     
  S S S E  E  E  E  E  S S S E     S S S E  E  E  E  E  S S S E   
--------------------------------|--------------------------------|
--------------------------------|--------------------------------|
--------------------------------|--------------------------------|
--------------------------------|--------------------------------|
--3-3-3-3-----3-----3--3-3-3-3--|--3-3-3-3-----3-----3--3-3-3-3--|


  |-3-|                |-3-|       |-3-|                |-3-|     
  S S S E  E  E  E  E  S S S E     S S S E  E  E  E  E  S S S E   
--------------------------------|--------------------------------|
--------------------------------|--------------------------------|
--------------------------------|--------------------------------|
--------------------------------|--------------------------------|
--3-3-3-3-----3-----3--3-3-3-3--|--3-3-3-3-----3-----3--3-3-3-3--|


                                                                    phaser off  
  |-3-|                |-3-|       |-3-|       |-3-| |-3-|    |-3-|             
  S S S E  E  E  E  E  S S S E     S S S E  E  S S S S S S E  S S S E           
--------------------------------|----------------------------------------------|
--------------------------------|----------------------------------------------|
--------------------------------|----------------------------------------------|
--------------------------------|----------------------------------------------|
--3-3-3-3-----3-----3--3-3-3-3--|--3-3-3-3-----3-3-3-3-3-3-3--3-3-3-3----------|


  H        E  Q.        H        E  Q       H.              Q.     Q.      
---------------------|-------------------|---------------|----------------|
---------------------|-------------------|---------------|----------------|
---------------------|-------------------|---------------|----------------|
--3--------L--4------|--3--------L--1----|--0------------|---------2------|
---------------------|-------------------|---------------|--1-------------|


  H        E  Q.        H        E  Q       H.              Q.     Q.      
---------------------|-------------------|---------------|----------------|
---------------------|-------------------|---------------|----------------|
---------------------|-------------------|---------------|----------------|
--3--------L--4------|--3--------L--1----|--0------------|----------------|
---------------------|-------------------|---------------|--1------4------|


  E  E  E  E  E  E  E  E     E  E  E  S S E  E  E     E  E  E  E  E  E   
--------------------------|------------------------|-----------------4--|
--------5-----3--6--5-----|---------------5--------|--------2--3--2-----|
-----5-----5-----------6--|--5-----5--6-8----3-----|-----2--------------|
--3-----------------------|-----3---------------1--|--0-----------------|
--------------------------|------------------------|--------------------|


  E  E  E  E  E  E  E     E  E  E  E  E  E  E  E     E  E  E  S S E  E  E   
--5--------------------|--------------------------|---------------0--------|
--------5--------6-----|--------5-----3--6--5-----|-----------1-3----------|
-----3-----4-----------|-----5-----5-----------6--|--5-----5---------3-----|
--------------2-----4--|--3-----------------------|-----3---------------1--|
-----------------------|--------------------------|------------------------|


                          |-3-|                                            
  E  E  E  E  E  E     E  S S S E  E  E  E  E     E  S E  S S S S S S S S  
-----------------4--|--5-----------------------|--------------------------|
--------2--3--2-----|-----------5--------------|--------------------3-5-6-|
-----2--------------|-----3-5-6----6-----------|----------------3-5-------|
--0-----------------|--------------------6--4--|--3--4-3--4-3-4-----------|
--------------------|-----------------4--------|--------------------------|


  E  S E  S E  S S S S S S S    E  S E  S E  E  S S S S S S S  
-----------------------------|--------------------------------|
-----------------------------|--------------------------3-5-6-|
---------------5-3-----------|----------------------3-5-------|
--3--4-3--4-3------4-3-1-----|--3--4-3--4-3--4--3-4-----------|
-------------------------4-3-|--------------------------------|


  E  S E  S S S S S S S S S    H        E  Q.        H        E  Q     
----------------------------|---------------------|-------------------|
----------------------------|---------------------|-------------------|
----------------5-3---------|---------------------|-------------------|
--3--4-3--4-3-4-----4-3-1---|---------------------|-------------------|
--------------------------4-|--3-----------4------|--3-----------1----|


  H.              Q.     Q.        H        E  Q.        H        E  Q     
---------------|----------------|---------------------|-------------------|
---------------|----------------|---------------------|-------------------|
---------------|----------------|---------------------|--------------3----|
---------------|--3-------------|---------------------|-------------------|
--0------------|---------2------|--3-----------4------|--3----------------|


                      >                                                         
  W                   Q    Q    Q    H           E  S E  S E  E  S S S S S S S  
-------------------|--------------------------|--------------------------------|
-------------------|--------------------------|--------------------------3-5-6-|
-------------------|--------------------------|----------------------3-5-------|
--4----------------|--3-----------------------|--3--4-3--4-3--4--3-4-----------|
-------------------|--------------------------|--------------------------------|


  E  S E  S E  S S S S S S S    E  S E  S S S S S S S S    Q.     E  Q    Q     
-----------------------------|--------------------------|----------------------|
-----------------------------|--------------------3-5-6-|----------------------|
---------------5-3-----------|----------------3-5-------|--1-------------------|
--3--4-3--4-3------4-3-1-----|--3--4-3--4-3-4-----------|---------4--L---------|
-------------------------4-3-|--------------------------|-----------------3----|


                                           
  S                  T  T   T  T   T   T                   
  S               S  S  E   S  E   E   E                   
-----------------------16-----------------|---------------|
----------------------------------15--17--|---------------|
--------------------14--------15----------|---------------|
--0---------------0---------x-------------|---------------|
------------------------------------------|---------------|


  S S S S S S S S S S S S E  E  E  E     S S S S S S S S  
--------------------------------------|--------7-3-------|
--------4-4-4-------4-4-4----4--5-----|------6-----4-----|
--------------------------4--------3--|----5---------5---|
--2-2-2-------2-2-2-------------------|--4-------------6-|
--------------------------------------|------------------|


  S S S S S S S S S S S S E  E  E  E     S S S S S  S S S  
--------------------------------------|--7----------------|
--------4-4-4-------4-4-4----4--5-----|----6---8----------|
--------------------------4--------3--|------5---9--------|
--2-2-2-------2-2-2-------------------|------------10---9-|
--------------------------------------|---------------8---|


  S S S S S S S S S S S S E  E  E  E     S S S S S S S S  
--------------------------------------|--------7-7-------|
--------4-4-4-------4-4-4----4--5-----|------8-----6-----|
--------------------------4--------3--|----9---------5---|
--2-2-2-------2-2-2-------------------|--6-------------4-|
--------------------------------------|------------------|


                                         |-6-| |-6-|    |-6-| |-6-|  
  S S S S S S S S S S S S E  E  E  E     S S S S S S E  S S S S S S  
--------------------------------------|-----------------------------|
--------4-4-4-------4-4-4----4--5-----|-----------------------------|
--------------------------4--------3--|-----------------------------|
--2-2-2-------2-2-2-------------------|--5-4-4-3-3-2-1--------------|
--------------------------------------|-----------------5-4-3-3-2-2-|


  S S S S S S S S S S S S S S S S S S S S S S S S S S S S S S S S S S S S S S S 
--------------------------------------------------------------------------------
--------------------------------------------------------------------------------
--------------------------------------------------------------------------------
--------------------------------------------------------------------------------
--0-0-0-0---0-0-0-0---0-0-0-0---0-0-0-0---0-0-0-0---0-0-0-0---0-0-0-0---0-0-0-0-


  S S S S S S S S S S S S S S S S S S S S S S S S S S S S S S S S S S S S S S S 
--------------------------------------------------------------------------------
--------------------------------------------------------------------------------
--------------------------------------------------------------------------------
--------------------------------------------------------------------------------
--0-0-0-0---0-0-0-0---0-0-0-0---0-0-0-0---0-0-0-0---0-0-0-0---0-0-0-0---0-0-0-0-


  S S S S S S S S S S S S S S S S S S S S S S S S S S S S S S S S S S S S S S S 
--------------------------------------------------------------------------------
--------------------------------------------------------------------------------
--------------------------------------------------------------------------------
--7-7-7-7---7-7-7-7---7-7-7-7---7-7-7-7---7-7-7-7---7-7-7-7---7-7-7-7---7-7-7-7-
--------------------------------------------------------------------------------


  S S S E  S S S E  S S S E  S S S E  S S S E  S S S E  S S S E  S    H         
-------------------------------------------------------------------|-----------|
-------------------------------------------------------------------|-----------|
-------------------------------------------------------------------|-----------|
--7-7-7-7--7-7-7-7--7-7-7-7--7-7-7-7--7-7-7-7--7-7-7-7--7-7-7-7----|--7--------|
-------------------------------------------------------------------|-----------|


  S S S S S S S S S S S S S S S S S S S S S S S S S S S S S S S S S S S S S S S 
--------------------------------------------------------------------------------
--------------------------------------------------------------------------------
--------------------------------------------------------------------------------
--0-0-0-0---0-0-0-0---0-0-0-0---0-0-0-0---0-0-0-0---0-0-0-0---0-0-0-0---0-0-0-0-
--------------------------------------------------------------------------------


  S S S S S S S S S S S S S S S S S S S S S S S S S S S S S S S S S S S S S S S 
--------------------------------------------------------------------------------
--------------------------------7-7-7-7-----------------------------------------
--7-7-7-7---7-7-7-7---9-9-9-9-------------7-7-7-7---7-7-7-7---9-9-9-9---9-9-9-9-
--------------------------------------------------------------------------------
--------------------------------------------------------------------------------


  S S S S S S S S S S S S S S S S    Q    Q    Q    Q     
----------------------------------|----------------------|
----------------------------------|----------------------|
--7-----6-------5-4---3-2---1-0---|--4---------3---------|
----7-0---7-0-------0-----0-----2-|-------3---------2----|
----------------------------------|----------------------|


  S S S S S S S S S S S S S S S S    S S S S S S S S S S S S S S S S  
----------------------------------|----------------------------------|
----------------------------------|--5-----1-2-----------------------|
--7-----6-------5-4---3-2---1-0---|----3-4-----0-1-3-4---------------|
----7-0---7-0-------0-----0-----2-|--------------------2-3-5-6-5-3-2-|
----------------------------------|----------------------------------|


  S S S S S S S S S S S S S S S S    S S S S S S S S S S S S S S S S  
----------------------------------|----------------------------------|
----------------------------------|------------------------0-1---1-4-|
--7-----6-------5-4---3-2---1-0---|------------------2-3-4-----2-----|
----7-0---7-0-------0-----0-----2-|--3-2-0-2---0-2-3-----------------|
----------------------------------|----------4-----------------------|


  S S S S S S S S S S S S S S S S    E  E  S E  S H         
----------------------------------|------------------------|
----------------------------------|------------------------|
--7-----6-------5-4---3-2---1-0---|--3--3--3-3--2-L--------|
----7-0---7-0-------0-----0-----2-|------------------------|
----------------------------------|------------------------|


  E  E  E  S S S E  S E  E     E  E  S S S S S S E  E  E   
----------------------------|-----------------------------|
----------------------------|-----------------------------|
----------------------------|-----------------------------|
----------------------------|-----------------------------|
--5--5--0--0-5---5--5-0--0--|--2--2--1-1---0---0-0--3--4--|


  E  E  E  S S S E  S E  E     E  E  S S S S S S E  E  E   
----------------------------|-----------------------------|
----------------------------|-----------------------------|
----------------------------|-----------------------------|
----------------------------|-----------------------------|
--5--5--0--0-5---5--5-0--0--|--7--7--7-7---0---0-8--7--6--|


  E  S S E  S S E  S S E  S S    E  E  S S S S S S E  E  E   
------------------------------|-----------------------------|
------------------------------|-----------------------------|
------------------------------|-----------------------------|
------------------------------|-----------------------------|
--5--0-0-4--0-0-3--0-0-2--0-0-|--1--1--1-1---0---0-0--3--4--|


  E  S S E  S S E  S S E  E     E.  S E  E  S E.  Q       Q     Q    H         
-----------------------------|-------------------------|----------------------|
-----------------------------|-------------------------|----------------------|
-----------------------------|-------------------------|----------------------|
-----------------------------|--5---5----5----5---5----|--7\------------------|
--5--0-0-7--0-0-8--0-0-9--0--|-------------------------|----------------------|


  W/fuzz distortion                                 
  S                  S S S S S S S S S S S S S S S  
---------------------------------------------------|
---------------------------------------------------|
--7------------------7-7-7-7-7-7-7-7-7-7-7-7-7-7-7-|
---------------------------------------------------|
---------------------------------------------------|


  S S S S S S S S S S S S S S S S    S S S S S S S S S S S S S S S S  
----------------------------------|----------------------------------|
----------------------------------|----------------------------------|
--5-5-5-5-5-5-5-5-5-5-5-5-5-5-5-5-|----------------------------------|
----------------------------------|--5-5-5-5-5-5-5-5-5-5-5-5-5-5-5-5-|
----------------------------------|----------------------------------|


  S S S S S S S S S S S S S S S S    S S S S S S S S S S S S S S S S  
----------------------------------|----------------------------------|
----------------------------------|----------------------------------|
----------------------------------|--7-7-7-7-7-7-7-7-7-7-7-7-7-7-7-7-|
----------------------------------|----------------------------------|
--6-6-6-6-6-6-6-6-6-6-6-6-6-6-6-6-|----------------------------------|


  S S S S S S S S S S S S S S S S    S S S S S S S S S S S S S S S S  
----------------------------------|----------------------------------|
----------------------------------|----------------------------------|
--5-5-5-5-5-5-5-5-5-5-5-5-5-5-5-5-|----------------------------------|
----------------------------------|--5-5-5-5-5-5-5-5-5-5-5-5-5-5-5-5-|
----------------------------------|----------------------------------|


  S S S S S S S S S S S S S S S S    S S S S S S S S S S S S S S S S  
----------------------------------|----------------------------------|
----------------------------------|----------------------------------|
----------------------------------|----------------------------------|
----------------------------------|--0-0-0-0-0-0-0-0-0-0-0-0-0-0-0-0-|
--6-6-6-6-6-6-6-6-6-6-6-6-6-6-6-6-|----------------------------------|


  S S S S S S S S S S S S S S S S  
----------------------------------|
----------------------------------|
----------------------------------|
--1-1-1-1-1-1-1-1-3-3-3-3-3-3-3-3-|
----------------------------------|


   W/heavy fuzz                                                         
   |-------6-------|  |--6--|  |--6--|  |--|   |----5---|               
   S            S  S  S  S  S  S  S  S  S  E   S  S  S  E   S  S  S  S  
-----------------------------------------------------------------------|
-------------------------------------------------------10--------------|
--10-----------12-12-12-12-12-10-12-12-12-12--10-12-12-----12-12-12-12-|
-----------------------------------------------------------------------|
-----------------------------------------------------------------------|


   |-----5-----|                                 |--6--|  |--6--|  
   S  S  S  S  S  S  S  S  S  S  S  T  T  T  T   S  S  S  S  S  S  
------------------------------------------------------------------|
--------10-12-12-14-14-12-10----------10-12-12S-15-15-15-10-------|
--10-12----------------------12-10-12-----------------------12-12-|
------------------------------------------------------------------|
------------------------------------------------------------------|


                     |--6--|  |--6--|  |------5-----|              
   S  S  T  T  T  T  S  S  S  S  S  S  S  S  S   S  S  S  S  S  S  
--------------------12-12-12--------------------10-12-13-13-13----|
--------10-12-14-15----------10-------------12S----------------10-|
--10-12-------------------------12-12-10-12-----------------------|
------------------------------------------------------------------|
------------------------------------------------------------------|


                                  |--3--|  |--6--|  |--6--|  
   S  S  S  S  E  S   T  T  S  S  S  S  S  S  S  S  S  S  S  
--------12-13-14--L\-14-14-16-19-16-17-19-21-22-21-21-------|
-----15-----------------------------------------------22-21-|
--12--------------------------------------------------------|
------------------------------------------------------------|
------------------------------------------------------------|


   |----5---|               |-----5-----|              
   S  S  S  E   S  S  S  S  S  S  S  S  S  S  S  S  S  
---------------12-14----------------------------------|
--19-17-15-15--------15-14-12----------12-14-12-------|
------------------------------14-14-15----------15-14-|
------------------------------------------------------|
------------------------------------------------------|


   |-----5-----|  |--6--|  |--6--|  |-----5-----|             
   S  S  S  S  S  S  S  S  S  S  S  S  S  S  S  S S  S  S  S  
--------10-12-------14-16-17-19-21-23-21-19-17-16-L-14-------|
--12-14-------15-17------------------------------------15-14-|
-------------------------------------------------------------|
-------------------------------------------------------------|
-------------------------------------------------------------|


   S  E.   S  E.   S  S  S  S  S  S  S  S  
------------------------------------------|
------------------------------------------|
--17-15---14-12---12-12-14-12-12-14-14-15-|
------------------------------------------|
------------------------------------------|


   S  S  S  S  S  S   S  S   Q    E  S S    E  S E  S E  S S S S E  S S  
-----------------------------------------|------------------------------|
--------------14-14S-16-16S-14-----------|------------------------------|
--15-14-14-14-15-15S-17-17S-15-----------|-----------------------0------|
----------------------------------5--3---|--0--5-7--3-0--1-3-1-0----3-1-|
---------------------------------------6-|------------------------------|


  E  S E  S E  S S S S E  S S    E  S E  S E  S S S S  
------------------------------|-----------------------|
---------------0-2-0-2--------|-----------------------|
-----2-3---------------0------|-----0-2---------------|
--0-------3-0-------------3-1-|--0-------3-0--1-3-1-0-|
------------------------------|-----------------------|


  S S E  S S S S S S S S E  S S E  S S    E  S E  S E  S S S S E  S S  
---------------------------------------|------------------------------|
---------------0-2---3-2-L-------------|------------------------------|
----0-2---------------------3-2-0------|-----0-2---------------0------|
---------3-0-----------------------3-1-|--0-------3-0--1-3-1-0----3-1-|
---------------------------------------|------------------------------|


  E  S E  S E  S S S S E  S S    E  S E  S E  S S S S  
------------------------------|-----------------------|
---------------0-2-0-2--------|-----------------------|
-----2-3---------------0------|-----0-2---------------|
--0-------3-0-------------3-1-|--0-------3-0--1-3-1-0-|
------------------------------|-----------------------|


  S S E  S S S S E  S S E  S S    S S S S S S S S S S S S S S S S  
-------------------------------|----------------------------------|
---------------0-2--3-2-L------|----------------------------------|
----0-2--------------------3-2-|--0-----------0-2-----------------|
---------3-0-------------------|----0-3-1-0-0-----0-3-0-0-1-3-1-0-|
-------------------------------|----------------------------------|


  S S S S S S S S S S S S S S S S    S S S S S S S S S S S S S S S S  
----------------------------------|----------------------------------|
----------------------------------|----------------------------------|
--0-----------0-2-----------------|--0-----------0-2-----------------|
----0-3-1-0-0-----0-3-0-0-1-3-1-0-|----0-3-1-0-0-----0-3-0-0-1-3-1-0-|
----------------------------------|----------------------------------|


  S S S S S S S S S S S S S S S S    S S S S S S S S S S S S S S S S  
----------------------------------|----------------------------------|
----------------------------------|----------------------------------|
--0-----------0-2-----------------|--0-----------0-2-----------------|
----0-3-1-0-0-----0-3-0-0-1-3-1-0-|----0-3-1-0-0-----0-3-0-0-1-3-1-0-|
----------------------------------|----------------------------------|


  S S S S S S S S S S S S S S S S    S S S S S S S S S S S S S S S S  
----------------------------------|----------------------------------|
--------------------------0-2-0-2-|----------------------------------|
--0-----------2-3-----------------|--0-----------0-2-----------------|
----0-3-1-0-0-----0-3-0-0---------|----0-3-1-0-0-----0-3-0-0-1-3-1-0-|
----------------------------------|----------------------------------|


  S S S S S S S S S S S S E  S S    S S S S S S S S S S S S S S S S  
---------------------------------|----------------------------------|
----------------0-2---3-2-L--3-2-|--0-----------0-2-----------------|
----0-2--------------------------|----0-3-2-0-0-----0-3-0-0-2-3-2-0-|
--0-----0-3-0-0-----0------------|----------------------------------|
---------------------------------|----------------------------------|


  S S S S S S S S S S S S S S S S    S S S S S S S S S S S S S S S S  
----------------------------------|----------------------------------|
--0-----------0-2-----------------|--0-----------0-2-----------------|
----0-3-2-0-0-----0-3-0-0-2-3-2-0-|----0-3-2-0-0-----0-3-0-0-2-3-2-0-|
----------------------------------|----------------------------------|
----------------------------------|----------------------------------|


  S S S S S S S S S S S S S S S S    S S S S S S S S S S S S S S S S  
----------------------------------|----------------------------------|
--0-----------0-2-----------------|--0-----------0-2-----------------|
----0-3-2-0-0-----0-3-0-0-2-3-2-0-|----0-3-2-0-0-----0-3-0-0-2-3-2-0-|
----------------------------------|----------------------------------|
----------------------------------|----------------------------------|


  S S S S S S S S S S S S S S S S    S S S S S S S S S S S S S S S S  
----------------2-0---0-----------|----------------------------------|
--0-----------0-----2---2-0-2-0---|--0-----------0-2-----------------|
----0-3-2-0-0-------------------3-|----0-3-2-0-0-----0-3-0-0-2-3-2-0-|
----------------------------------|----------------------------------|
----------------------------------|----------------------------------|


  S S S S S S S S S S S S S S S S    S S S S S S S S S S S S S S S S  
----------------2---0-------------|----------------------------------|
--0-----------0---------0---0-----|--0-----------0-2-----------------|
----0-3-2-0-0-----------------2-0-|----0-3-2-0-0-----0-3-0-0-2-3-2-0-|
----------------------------------|----------------------------------|
----------------------------------|----------------------------------|


  S S S S S S S S S S S S S S S S    S S S S S S S S S S S S S S S S  
----------------------------------|----------------0-----------------|
--2---0-------2-3---0-------0-----|--3---2-0-----3-----2-----0-2-0---|
----0---3-0-0-----0---0-0-3---3-0-|----0-----0-0-----0---0-0-------0-|
----------------------------------|----------------------------------|
----------------------------------|----------------------------------|


  S S S S S S S S S S S S S S S S    S S S S S S S    S S S S S S S  
--0-----------0-2-----------------|--2---0-------2-|--4---2-0-----4-|
------3-2-----------3-----2-3-2---|--------3-------|----------------|
----0-----0-0-----0---0-0-------0-|----0-----0-0---|----0-----0-0---|
----------------------------------|----------------|----------------|
----------------------------------|----------------|----------------|


  S S S S S S S    S S S S S S S    S S S S S S     S S S S S  S  
--5---4-2-----5-|--7---5-4-----7-|--9---7-5---9-|--10---9-7---10-|
----------------|----------------|--------------|----------------|
----0-----0-0---|----0-----0-0---|----0-----0---|-----0-----0----|
----------------|----------------|--------------|----------------|
----------------|----------------|--------------|----------------|


   S S  S S S  S     S S  S  S S  S     S S  S  E.      S  S S S S  S S  
--12---10-9---12-|--14---12-14---12-|--14---12-14\---|------------------|
-----------------|------------------|----------------|----------------3-|
-----0------0----|-----0-------0----|-----0----------|-------3-2-2s-3---|
-----------------|------------------|----------------|--0s--------------|
-----------------|------------------|----------------|-----6------------|


  S  S S S S  S  S    S   S  S  S  S   S  S     W                  
-------5-4-4s-5-10-|--9h-10-17-16-16s-17-22-|--21~----------------|
--2s-3-------------|------------------------|---------------------|
-------------------|------------------------|---------------------|
-------------------|------------------------|---------------------|
-------------------|------------------------|---------------------|


   S S  S S S     S S  S S S     S S  S S  S S S     S S  S S S  
--------------|--14---14-----|--14---14---14-----|--14---14-----|
--19---19-----|--------------|-------------------|--------------|
-----0----0-0-|-----0----0-0-|-----0----0----0-0-|-----0----0-0-|
--------------|--------------|-------------------|--------------|
--------------|--------------|-------------------|--------------|


   S S  S S  S S S     S S  S S S     S S  S S S     S S  S S  S S S  
--14---14---14-----|--14---14-----|--14---14-----|--14---14---14-----|
-------------------|--------------|--------------|-------------------|
-----0----0----0-0-|-----0----0-0-|-----0----0-0-|-----0----0----0-0-|
-------------------|--------------|--------------|-------------------|
-------------------|--------------|--------------|-------------------|


  S S S S E.  E.      E.  S S S S E.      H        E  Q.      
--2-2--------------|--------2-2--------|---------------------|
----------3--------|--------------3\---|---------------------|
--------------3\---|--0----------------|---------------------|
--x-----0----------|-------------------|--3--------L--4------|
-------------------|-------------------|---------------------|


  H        E  Q       H.              Q.     Q.        H        E  Q.      
-------------------|---------------|----------------|---------------------|
-------------------|---------------|----------------|---------------------|
-------------------|---------------|----------------|---------------------|
--3--------L--1----|--0------------|---------2------|--3--------L--4------|
-------------------|---------------|--1-------------|---------------------|


  H        E  Q       H.           Q.        H.           Q.      
-------------------|----------------------|----------------------|
-------------------|--2------------3------|--0-------------------|
-------------------|----------------------|---------------4------|
--3--------L--1----|----------------------|----------------------|
-------------------|----------------------|----------------------|


  Q.     Q.        H.           Q.        H.            
----------------|----------------------|---------------|
----------------|--2------------3------|--0------------|
--0-------------|----------------------|---------------|
---------1------|----------------------|---------------|
----------------|----------------------|---------------|


                                     hand slide up                         
  Q.     Q    E  Q    E  Q.     Q    E                H.           Q.      
---------------------------------------------------|----------------------|
---------------------------------------------------|--2------------3------|
--4------L----0--L---------------------------------|----------------------|
----------------------4--L------2----L/------------|----------------------|
---------------------------------------------------|----------------------|


  H.           Q.        Q.     Q.        H.           Q.        H.            
----------------------|----------------|----------------------|---------------|
--0-------------------|----------------|--2------------3------|--0------------|
---------------4------|--0-------------|----------------------|---------------|
----------------------|---------1------|----------------------|---------------|
----------------------|----------------|----------------------|---------------|


  Q.     Q    E  Q    E  Q.     E  E  E     H.           Q.      
-----------------------------------------|----------------------|
-----------------------------------------|--2------------3------|
--4------L----0--L-----------------------|----------------------|
----------------------4--L------2--2--2--|----------------------|
-----------------------------------------|----------------------|


  Q.     Q.     Q.        Q.     Q.     E  Q       Q    Q    Q    Q     
-----------------------|------------------------|----------------------|
--0--------------------|---------2------L--3----|--0-------------------|
---------4------0------|--L---------------------|-------4----0----1----|
-----------------------|------------------------|----------------------|
-----------------------|------------------------|----------------------|


  H.           Q.        Q.     Q.     Q.        Q.     Q.     E  Q     
----------------------|-----------------------|------------------------|
--2------------3------|--0--------------------|---------2------L--3----|
----------------------|---------4------0------|--L---------------------|
----------------------|-----------------------|------------------------|
----------------------|-----------------------|------------------------|


  Q    Q    Q    Q       S S S S S S S S S  S  S  S  
----------------------|--------8---7----------------|
--0-------------------|------6---6---8-9-9-10-------|
-------4----0----1----|--7-9------------------11-12-|
----------------------|-----------------------------|
----------------------|-----------------------------|


  S S S S S S S S S  S  S  S  S  S  S  S    S S S S S S S S S  S  S  S  
--------8---7----------------------------|--------8---7----------------|
------6---6---8-9-9-10-------------------|------6---6---8-9-9-10-------|
--7-9------------------11-12-13-14-10-11-|--7-9------------------11-12-|
-----------------------------------------|-----------------------------|
-----------------------------------------|-----------------------------|


  S S S S S S S S  S  S  S  S  S  S  S  S    S S S S S S S S S  S  S  S  
--------8---7--------------------11-12-13-|--------8---7----------------|
------6---6---8-9-10-11-12-13-14----------|------6---6---8-9-9-10-------|
--7-9-------------------------------------|--7-9------------------11-12-|
------------------------------------------|-----------------------------|
------------------------------------------|-----------------------------|


  S S S S S S S  S  S  S    S S S S S S S S S  S  S  S  
--------8---7------------|--------8---7----------------|
------6---6---9-10-------|------6---6---8-9-9-10-------|
--7-9--------------11-12-|--7-9------------------11-12-|
-------------------------|-----------------------------|
-------------------------|-----------------------------|


  S S S S S S S  S  S  S  S  S  S  S     S  S  S  S S     S  S  S  S S  
--------8---7------------------------|----------------|----------------|
------6---6---9-10-------------------|----------------|----------------|
--7-9--------------11-12-13-14-10-11-|--14-11-13-11---|--14-11-13-11---|
-------------------------------------|--------------0-|--------------0-|
-------------------------------------|----------------|----------------|


   S  S  S  S S     S  S S S  S  S     S S S  S S  S  S S S S S  S  
----------------|------------------|-------------------------------|
----------------|--------8-9-11-12-|-------------------------------|
--14-11-13-11---|--10-11-----------|-------------------------------|
--------------0-|------------------|---------11---10----7-7-8------|
----------------|------------------|--10-7-9----9----11-------9-10-|


  S S S S S S S S S S S S S S S S    S S S S S S S S S S S S  
----------------------------------|--------------------------|
----------------------------------|--------------------------|
--------6---5---------------------|--------6---5-------------|
----2-4---4---6-7-7-8---5-6-7-----|--5---4---4---6-7-7-8---5-|
--5-------------------9-------8-9-|----7-----------------9---|


  S S S S S S S S S S S S S S S S    S S S S S S S S S S S  S  
----------------------------------|---------------------------|
------------------------------5-6-|---------------------------|
--------6---5---------5-6-7-9-----|--------6---5------------0-|
----2-4---4---6-7-8-9-------------|----2-4---4---6-7-7-8------|
--5-------------------------------|--5-------------------9-10-|


  S S S S S S S S S  S    S S S S S S S S S S S S  
-----------------------|--------------------------|
-----------------------|--------------------------|
--------6---5----------|--------6---5-----------0-|
----2-4---4---7-8------|----2-4---4---6-7-7-8-4---|
--5---------------9-10-|--5-----------------------|


  S S S S S S S S S S S S S S    S S S S S    S S S S S    S S S S S  
------------------------------|------------|------------|------------|
------------------------------|------------|------------|------------|
--------6---5-----------------|------------|------------|------------|
----2-4---4---7-8---5-6-7-----|--7-4-6-4-0-|--7-4-6-4-0-|--7-4-6-4-0-|
--5---------------9-------8-9-|------------|------------|------------|


  S S S S S S    S S S S S    S S S S S    S S S S S    S S S S S    S S S S S  
--------------|------------|------------|------------|------------|------------|
--------------|------------|------------|------------|--------2-4-|--5-2-4-2---|
--------2-4-5-|--7-4-6-4-0-|--7-4-6-4-0-|--7-4-6-4-0-|--3-4-6-----|----------3-|
--3-4-6-------|------------|------------|------------|------------|------------|
--------------|------------|------------|------------|------------|------------|


  S S S S S S S    S S S S S    S S S S S S    S S S S S    S S S S S  
----------------|------------|--------2-3-5-|--6-3-5-----|--6-3-5-----|
--5-2-4-2-4-2---|--5-2-4-2---|--2-4-5-------|--------6-3-|--------6-3-|
--------------3-|----------3-|--------------|------------|------------|
----------------|------------|--------------|------------|------------|
----------------|------------|--------------|------------|------------|


  S S S S S    S S S S S S S    E.  E  S E  E  E     E.  E  S S T T S S S S  
--6-3-5-----|----------------|--------------------|-------------------------|
--------6-3-|--5-6-5-3-------|--------------------|-------------------------|
------------|----------6-4-3-|------9----8--6--4--|------9----8-9-8-6-------|
------------|----------------|--7------7----------|--7------7---------9-7---|
------------|----------------|--------------------|-----------------------9-|


  E.   E  S E  E  E     E.  E  S S  T T S S S S S S    E.  E  S E  E  E   
---------------------|------------------------------|--------------------|
---------------------|------6----4h-6-4-3-----------|--------------------|
------11----9--8--6--|--4------4----------6-4---4-6-|--0---7--0-6--4--2--|
--9-------9----------|------------------------7-----|--------------------|
---------------------|------------------------------|--------------------|


  E.  E  S S S S S S S    E.  E  S E  E  E     E.  E  S S S S S S S  
-----------------------|--------------------|-----------------------|
------2----4-2-1-------|--------------------|-----------------------|
--0------0-------4-2-0-|------4----3--1-----|------4----6-4-3-------|
-----------------------|--2------2-------4--|--2------2-------6-4-2-|
-----------------------|--------------------|-----------------------|


     > > >    >  >  >    
  E  S S S    E  E  E    
-----------|-----------||
-----------|-----------||
-----------|--2--2--2--||
--0--0-0-0-|-----------||
-----------|-----------||




Duration Legend
---------------
W - whole
H - half
Q - quarter
E - 8th
S - 16th
T - 32nd
X - 64th
. - note dotted
|-n-|  - n-tuplets


Tablature Legend
----------------
L - tied note
x - dead note
g - grace note
(n) - ghost note
> - accentuded note
NH - natural harmonic
AH - artificial harmonic
TH - tapped harmonic
SH - semi harmonic
PH - pitch harmonic
h - hammer on
p - pull off
b - bend
br - bendRelease
pb - preBend
pbr - preBendRelease
brb - bendReleaseBend
\n/ - tremolo bar dip
\n - tremolo bar dive
-/n - tremolo bar Release up
/n\ - tremolo bar inverted dip
/n - tremolo bar return
-\n - tremolo bar Release down
S - shift slide
s - legato slide
/ -  slide into from below or out of upwards
\ -  slide into from above or out of downwards
~ - vibrato
W - wide vibrato
tr - trill
TP - tremolo picking
T - tapping
S - slap
P - pop
< - fade in
^ - brush up
v - brush down

            
            
Suggest correction
Creating personal tab
Creating personal tab
You can edit any tab online and save it as your Personal.

You can edit, replace or remove any tab part or add personal notes – all changes will be seen only by you.

Personal tabs can be accessed anytime from any device, even offline.
Learn more »
Give kudos to tab author, rate the tab!
1 2 3 4 5
comments
print report bad tab
guest
You may want to rate the tab now too:
select rating
Wanna post a correction for this tab? Suggest correction