Oops, an error
Loading. Please wait.

The Shattered Fortress bass

version 1
version 1

Whole song

Interactive

3,167 views 1 this week
2 commentsread comments
1 2 3 4 5
x 3
add to favorites
×
Save as Personal and add changes to this tab that will be seen only by you. Learn more ›
×
You can save this tab as Personal to edit and correct it or add notes. All changes will be seen only by you. Learn more »
launch autoscroll
font size
0
reset
guitar tuner
backing track
0:00
0:00
edit
Autoscroll
slow
fast
+/-
esc
set tempo
stop
THE SHATTERED FORTRESS BY DREAM THEATER
OFF OF "BLACK CLOUDS AND SILVER LININGS" ALBUM
BY-ZINO MEGGAS
I KNOW ONLY... 
INTRO, PRE VERSE, SOLO(ILL TEACH YOU SOLO ON BASS), VERSE

NEED 6 STRING BASS
TUNINGS-B.E.A.D.G.C

INTRO A
C--------------------------------------------------------------I
G--------------------------------------------------------------I
D--------------------------------------------------------------I
A--------------------------------------------------------------I
E--------------------------------------------------------------I
B-0-0-0-0-0-0-2-3-2-1-2-1-0-0-0-0-0-0-2-3-2-1-2-1-0-0-0-0-0-0--I

INTRO B
C-------------------------------------------------------------------------I
G-------------------------------------------------------------------------I
D-------------------------------------------------------------------------I
A-------------------------------------------------------------------------I
E-------------------------------------------------------------------------I
B-2-3-2-1-2-1-2-3-2-0~~-2-3-2-1-2-1-0-0-0-0-0-0-2-3-2-1-2-1-0-0-0-0-0-0---I

PRE VERSE A
C----------------------------------------------------I
G----------------------------------------------------I
D-------------------------------6-6-7-6--------------I
A-5-4-3-4-3-X-X-X-X-X-X-5-5-3-5---------X-X-X-X-X-X--I
E----------------------------------------------------I
B----------------------------------------------------I

PRE VERSE B (HAPPENS SOMETIMES IN PRE VEARSE A)
C-----------------------------------I
G-----------------------------------I
D-----------------------------------I
A-3-5-1-1-1-1-1-1--3-2-0-0-0-0-0-0--I
E-----------------------------------I
B-----------------------------------I

SOLO
C-------------------I
G-------------------I
D-------------------I
A-------------------I
E-------------------I
B-1~~-1~~-2~~-3~~---I

SOLO ON BASS                      
C---------------78~898----------789/87~--I
G-7656~-5676-765------7656~-5676---------I
D----------------------------------------I
A----------------------------------------I
E----------------------------------------I
B----------------------------------------I

C-------------------------1920~202120--I
G-19181718~17181918-191817-------------I
D--------------------------------------I
A--------------------------------------I
E--------------------------------------I
B--------------------------------------I

C-------------151615H15P15---------------I
G-151817151718------------181715171615~--I
D----------------------------------------I
A----------------------------------------I
E----------------------------------------I
B----------------------------------------I

VERSE
C-----------------I
G-----------------I
D-----------------I
A-----------------I
E-----------------I
B-0-0--------0-0--I

C------------------------------------------I
G------------------------------------------I
D------------------------------------------I
A------------------------------------------I
E------------------------------------------I
B-0-3P0-2P0-1P0-00-00-0-3P0-2P0-1P0-00-00--I



            
            
Suggest correction
Creating personal tab
Creating personal tab
You can edit any tab online and save it as your Personal.

You can edit, replace or remove any tab part or add personal notes – all changes will be seen only by you.

Personal tabs can be accessed anytime from any device, even offline.
Learn more »
Give kudos to tab author, rate the tab!
1 2 3 4 5
comments
print report bad tab
2 comments total.
0 reply
Toast1337 142 Jun 29, 2009 04:47 AM

the bass is wrong
it doesnt play the B's
listen to the isolated bass

0 reply
nick.deep.37 10 Jul 22, 2014 12:26 PM

Clearly wrong.

guest
Wanna post a correction for this tab? Suggest correction