Oops, an error
Loading. Please wait.

Three Days bass

version 1
version 1

Whole song

Interactive

865 views 3 this week
no commentswrite comment
1 2 3 4 5
2 more votes to show rating
add to favorites
×
Save as Personal and add changes to this tab that will be seen only by you. Learn more ›
×
You can save this tab as Personal to edit and correct it or add notes. All changes will be seen only by you. Learn more »
launch autoscroll
font size
0
reset
guitar tuner
edit
Autoscroll
slow
fast
+/-
esc
set tempo
stop
Author
Difficulty
                         Dream Theater - Three Days

(0.46) Band Enter

C |----------------------------------|----------------------------------------|
G |----------------------------------|----------------------------------------|
D |-----------2--------1-------------|-----------2--------1-------------------|
A |--0.-------------x--------2-------|--0.-------------x--------2-----1-------|
E |----------------------------------|----------------------------------------|
B |----------------------------------|----------------------------------------|


----------------------------------|----------------------------|
----------------------------------|----------------------------|
-----------2--------1-------------|----------------------------|
--0.-------------x--------2-------|----------------------------|
----------------------------------|--------------------0L------|
----------------------------------|--3--------4----------------|


                             (Vocals)
----------------------------|----------------------------------|
----------------------------|----------------------------------|
-----------0--3--2----------|-----------2--------1-------------|
--------2-------------------|--0.-------------x--------2-------|
--0--4----------------------|----------------------------------|
----------------------------|----------------------------------|


----------------------------------------|----------------------------------|
----------------------------------------|----------------------------------|
-----------2--------1-------------------|-----------2--------1-------------|
--0.-------------x--------2-2---1-------|--0.-------------x--------2-------|
----------------------------------------|----------------------------------|
----------------------------------------|----------------------------------|


----------------------------------|----------------------------------|
----------------------------------|----------------------------------|
----------------------------------|-----------2--------1-------------|
----------------------------------|--0.-------------x--------2-------|
--------------------0-------------|----------------------------------|
--3--3--3--3-----4----------------|----------------------------------|


----------------------------------------------|
----------------------------------------------|
-----------2--------1-----------0-------------|
--0.-------------x--------2--2--------1-------|
----------------------------------------------|
----------------------------------------------|


----------------------------------|----------------------------------|
----------------------------------|----------------------------------|
-----------2--------1-------------|----------------------------------|
--0.-------------x--------2-------|----------------------------------|
----------------------------------|--1-------------------------------|
----------------------------------|-----------3-----1--0-----5--4----|


(1.11) Prechorus 1   [Hide and protect him...]

----------------------------------|----------------|
----------------------------------|----------------|
----------------------------------|----------------|
--------------------2-------------|--3-------------|
----------------------------------|-----4--5--0----|
--3--------3----------------------|----------------|


----------------------------------|----------------------------------|
----------------------------------|----------------------------------|
----------------------------------|----------------------------------|
--2L----------2--0----------------|----------------------------------|
--------------------4-------------|--5--------------0----------------|
----------------------------------|-----------4--------1-------------|


----------------------------------|----------------|----------------|
----------------------------------|----------------|----------------|
----------------------------------|----------------|----------------|
----------------------------------|-----------3----|----------------|
-----------------1--3-------------|--0--4--5-------|----------------|
--3--------3----------------------|----------------|--3--3--4--4----|


----------------------------------------------------------------------------|
----------------------------------------------------------------------------|
----------------------------------------------------------------------------|
--7-----------------7-----------------7-----7-----7-----7-----7-----7-------|
-----------0--------------------0-------------------------------------------|
----------------------------------------------------------------------------|



(1.27) Chorus 1   [Brace yourself...]

----------------------------------|----------------------------------|
----------------------------------|----------------------------------|
----------------------------------|----------------------------------|
----------------------------------|----------------------------------|
--5-------------------------------|--5-------------------------------|
-----------4--------1-------------|-----------4--------1-----0-------|


----------------------------------|----------------------------------|
----------------------------------|----------------------------------|
----------------------------------|----------------------------------|
----------------------------------|----------------------------------|
--5-------------------------------|--1--1--1-----------0--0----------|
-----------4--------1-------------|-----------3--3--3--------1--0----|


----------------------------------|----------------------------------|
----------------------------------|----------------------------------|
----------------------------------|----------------------------------|
----------------------------------|----------------------------------|
--5-------------------------------|--5-------------------------------|
-----------4--------1-------------|-----------4--------1-----0-------|


----------------------------------|----------------------------|----------|
----------------------------------|----------------------------|----------|
----------------------------------|-----------6L-6-------------|----------|
----------------------------------|--------5--------8--5--6----|--7-------|
--5-------------------------------|--4--7----------------------|-----0----|
-----------4--------1-------------|----------------------------|----------|



(1.43) Verse 2

----------------|----------------|----------------|----------------|
----------------|----------------|----------------|----------------|
----------------|----------------|----------------|----------------|
-----7--6--5----|--2--3--1-------|--0-------------|----------------|
--5-------------|-----------4----|-----0--1-------|--0-------------|
----------------|----------------|-----------3----|-----3--1--0----|


----------------|----------------------------|----------------|----------------|
----------------|----------------------------|----------------|----------------|
----------------|--------6-----7-------------|----------------|----------------|
-----------8----|--7-----------------5--6----|--7--5--3--2----|----------------|
--5--8--7-------|----------------------------|----------------|--0-------------|
----------------|----------------------------|----------------|-----3--1--0----|


----------------------------------|----------------------------------------|
----------------------------------|-----------------------------3L-3---3---|
-----2--3--2--------1-----0-------|-----2--3--2--------1-----0-------------|
--0-----------3--0-----2-----1----|--0-----------3--0-----2----------------|
----------------------------------|----------------------------------------|
----------------------------------|----------------------------------------|


----------------------------------|----------------------------------------|
----------------------------------|----------------------------------------|
-----2--3--2--------1-----0-------|----------------------------------------|
--0-----------3--0-----2-----1----|--3--5--3--2-----0----------------------|
----------------------------------|--------------4-----1--3--------0-------|
----------------------------------|--------------------------4-------------|


----------------------------------|----------------------------------------|
----------------------------------|----------------------------------------|
----------------------------------|----------------------------------------|
----------------------------------|-----------------------------4L-4--1----|
-----3--4--3--------2-----1-------|-----3--4--3--------2-----1-------------|
--1-----------4--1-----3-----2----|--1-----------4--1-----3----------------|


----------------------------------|----------------------------------------|
----------------------------------|----------------------------------------|
-----2--3--2--------1-----0-------|----------------------------------------|
--0-----------3--0-----2-----1----|--3--5--3--2-----0----------------------|
----------------------------------|--------------4-----1--3--------0-------|
----------------------------------|--------------------------4-------------|


(2.12) Prechorus 2
----------------------------------|----------------|
----------------------------------|----------------|
----------------------------------|----------------|
-----------------3--2-------------|--3-------------|
----------------------------------|-----4--5--0----|
--3--------3----------------------|----------------|


----------------------------------|----------------------------------|
----------------------------------|----------------------------------|
----------------------------------|----------------------------------|
--2L----------2--0----------------|----------------------------------|
--------------------4-------------|--5--------------0----------------|
----------------------------------|-----------4--------1-------------|


-------------------|----------------|----------------|
-------------------|----------------|----------------|
-------------------|----------------|----------------|
-------------------|-----------3----|----------------|
-----------3-------|--0--4--5-------|----------------|
--3----------------|----------------|--3--3--4--4----|


                                              (2.29) Chorus 2
----------------------------------------|----------------------------------|
----------------------------------------|----------------------------------|
----------------------------------------|----------------------------------|
--7-----------------7-----7-----7-------|----------------------------------|
-----------------------0-----0-----0----|--5-------------------------------|
----------------------------------------|-----------4--------1-------------|


----------------------------------|----------------------------------|
----------------------------------|----------------------------------|
----------------------------------|----------------------------------|
----------------------------------|----------------------------------|
--5-------------------------------|--5-------------------------------|
-----------4--------1-----0-------|-----------4--------1-------------|


----------------------------------|----------------------------------|
----------------------------------|----------------------------------|
----------------------------------|----------------------------------|
----------------------------------|----------------------------------|
--1--1--1-----------0--0----------|--5-------------------------------|
-----------3--3--3--------1--0----|-----------4--------1-------------|


----------------------------------|----------------------------------|
----------------------------------|----------------------------------|
----------------------------------|----------------------------------|
----------------------------------|----------------------------------|
--5-------------------------------|--5-------------------------------|
-----------4--------1-----0-------|-----------4--------1-------------|


----------------------------|----------------------------|
----------------------------|-----------10L10-7----------|
-----------6L-6-------------|-----6--9-----------9--6----|
--------5--------8--5--6----|--7-------------------------|
--4--7----------------------|----------------------------|
----------------------------|----------------------------|


----------------------------------------------------------------------------|
--10-------7--------------------------7-------------------------------------|
--------------------9--------6--------------9-----6-------------------------|
--------------------------------------------------------8-----5-------------|
--------------------------------------------------------------------7-------|
----------------------------------------------------------------------------|


(2.46) Outro   [With this frightening decree...]

----------------------------|----------------------------|
----------------------------|----------------------------|
----------------------------|----------------------------|
--0--------2----------------|--0-----------2-------------|
----------------------------|----------------------------|
--------------4-----5-------|-----------------4L-4-------|


----------------------------------------------------|
----------------------------------------------------|
----------------------------------------------------|
--0-----------------2--2----------------------------|
----------------------------------------------------|
--------------------------4-----------5-------------|


----------------------------|----------------------------|
----------------------------|----------------------------|
----------------------------|----------------------------|
-----3--------2-------------|--0--------2----------------|
----------------------------|----------------------------|
----------------------------|--------------4-----5-------|


----------------------------|----------------------------|----------|
----------------------------|----------------------------|----------|
----------------------------|----------------------------|----------|
--0--------2-----3----------|--0--------2----------------|----------|
----------------------------|----------------------------|----------|
--------------4-------------|--------------4--5--4--5----|--1--0----|


(3.03)
----------------------------|----------------------------|
----------------------------|----------------------------|
----------------------------|----------------------------|
--0--------2----------------|--0-----------2-------------|
----------------------------|----------------------------|
--------------4-----5-------|-----------------4L-4-------|


----------------------------|----------------------------|
----------------------------|----------------------------|
----------------------------|----------------------------|
--0--------2----------------|-----3--------2-------------|
----------------------------|----------------------------|
--------------4-----5-------|----------------------------|


----------------------------|----------------------------|
----------------------------|----------------------------|
----------------------------|----------------------------|
--0--------2----------------|--0--------2-----3----------|
----------------------------|----------------------------|
--------------4-----5-------|--------------4-------------|

                              (3.16)  Big rit! [This remains the question on their...]
----------------------------|----------|----------------------------|----------|
----------------------------|----------|----------------------------|----------|
----------------------------|----------|----------------------------|----------|
--0--------2----------------|-----3----|----------------------------|-----2----|
----------------------------|----------|----------------------------|----------|
--------------4--5--4--5----|--1-------|--1-----------4--5--4--5----|--0-------|



       
        (3.26) Metal swang!

-------|----------------------------|----------------------------|
-------|----------------------------|----------------------------|
-------|--------2--2--1--1--0--0----|----------------------------|
-------|--0--0----------------------|--2--2--3--3--1--1----------|
--0----|----------------------------|--------------------4--4----|
-------|----------------------------|----------------------------|


----------------------------|----------------------------|
----------------------------|----------------------------|
----------------------------|----------------------------|
--0--0----------------------|----------------------------|
--------0--0--1--1----------|--0--0----------------------|
--------------------3--3----|--------3--3--1--1--0--0----|


----------------------------|----------------------------|
----------------------------|--------1--1--2--2----------|
--------------------3--3----|--2--2--------------0--0----|
--0--0--3--3--2--2----------|----------------------------|
----------------------------|----------------------------|
----------------------------|----------------------------|


----------------------------|----------------------------|
----------------------------|----------------------------|
--2--2--0--0----------------|--2--2--0--0----------------|
--------------3--3--2--2----|--------------3--3--2--2----|
----------------------------|----------------------------|
----------------------------|----------------------------|


----------------------------|----------------------------|
----------------------------|----------------------------|
----------------------------|----------------------------|
----------------------------|--6--7----------------------|
--0--0--5--4--7--5--8--7----|--------8--5-----5----------|
----------------------------|--------------7-----6--5----|


----------------------------|----------------------------|----------------|
----------------------------|--------------2--5--4--2----|----------------|
----------------------------|--4--------4----------------|--2-------------|
-----------3--------3--6----|-----3--6-------------------|----------------|
-----2--5-----2--5----------|----------------------------|----------------|
--4-------------------------|----------------------------|----------------|


----------------|----------------------------|----------|----||
----------------|----------------------------|----------|----||
----------------|----------------------------|----------|----||
----------------|----------------------------|--0-------|----||
--0-------------|--0--0----------------------|----------|----||
----------------|--------3--3--1--1---0--0---|----------|----||

Tabbed by Jack Schwenke

            
            
Suggest correction
Creating personal tab
Creating personal tab
You can edit any tab online and save it as your Personal.

You can edit, replace or remove any tab part or add personal notes – all changes will be seen only by you.

Personal tabs can be accessed anytime from any device, even offline.
Learn more »
Give kudos to tab author, rate the tab!
1 2 3 4 5
comments
print report bad tab
guest
You may want to rate the tab now too:
select rating
Wanna post a correction for this tab? Suggest correction