Oops, an error
Loading. Please wait.

Wither bass

version 1
version 1

Whole song

13,247 views 9 this week
no commentswrite comment
1 2 3 4 5
x 8
add to favorites
×
Save as Personal and add changes to this tab that will be seen only by you. Learn more ›
×
You can save this tab as Personal to edit and correct it or add notes. All changes will be seen only by you. Learn more »
launch autoscroll
font size
0
reset
guitar tuner
backing track
0:00
0:00
edit
Autoscroll
slow
fast
+/-
esc
set tempo
stop
Difficulty

So i'm so glad I got the isolated tracks
so that i could learn the bass part really easily.
I can share the bass tab to everyone now though.
Tab written by: Lucas Lalonde
lalonde.lucas@gmail.com

(Guitar Intro 0:00-0:07)

Verse One 0:08-0:41)

G-------------------------------------------------------------------|
D-------------------------------------------------------------------|
A--1-1-1-1-1-1-1-1------------------1-1-1-1-1-1-1-1-----------------|
E-------------------2-2-2-2-2-2-2-2-----------------2-2-2-2-2-2-2-2-|
B-------------------------------------------------------------------|

G-------------------------------------------------------------------|
D-------------------------------------------------------------------|
A--1-1-1-1-1-1-1-1------------------4-4-4-4-4-4-4-4-----------------|
E-------------------2-2-2-2-2-2-2-2-----------------4-4-4-4-4-4-4-4-|
B-------------------------------------------------------------------|

G-------------------------------------------------------------------|
D-------------------------------------------------------------------|
A--1-1-1-1-1-1-1-1------------------1-1-1-1-1-1-1-1-----------------|
E-------------------2-2-2-2-2-2-2-2-----------------2-2-2-2-2-2-2-2-|
B-------------------------------------------------------------------|

G-------------------------------------------------------------------|
D-------------------------------------------------------------------|
A--1-1-1-1-1-1-1-1------------------4-4-4-4-4-4-4-4-3-3-3-3-3-3-3-3-|
E-------------------2-2-2-2-2-2-2-2---------------------------------|
B-------------------------------------------------------------------|

Pre-Chorus One (0:41-0:57)

G-------------------------------------------------------------------|
D---------------------------------------------/8-8-8-6-8-8-8--------|
A-------------------/9-9-9-8-6-----1-1-1-1-1-1---------------1-1-1--|
E--2-2-2-2-2-2-2-2-2-----------9-8----------------------------------|
B-------------------------------------------------------------------|

G--------------------------------------------------------------------------|
D-----------------------------------------------------------6-6------------|
A-------------------/9-9-9-8-6-----9-----9-----9-----------------6-7-6-4---|
E--2-2-2-2-2-2-2-2-2-----------9-8------------------4-4-4-4----------------|
B------------------------------------7-7---7-7---7-------------------------|


Chorus One (0:58-1:21)
(Add a bit of distortion)

G---------------------------------------------|
D---------------------------------------------|
A--4--4-4---3-3--3-3---1--1-1-----------------|
E-------------------------------2-2--2-2--2-2-|
B---------------------------------------------|

G---------------------------------------------------|
D-------------------------------------------4-4-3-3-|
A--4--4-4---3-3--3-3---1--1-1-------------4---------|
E-------------------------------2-2-2-2-2-----------|
B---------------------------------------------------|

G-----------------------------------------------|
D-----------------------------------------------|
A--4--4-4-4--3-3-3-3-3---(Let Ring)---0---------|
E-----------------------2-----------------------|
B-----------------------------------------------|


Verse Two (1:22-1:55)
(Same as Verse one)

G-------------------------------------------------------------------|
D-------------------------------------------------------------------|
A--1-1-1-1-1-1-1-1------------------1-1-1-1-1-1-1-1-----------------|
E-------------------2-2-2-2-2-2-2-2-----------------2-2-2-2-2-2-2-2-|
B-------------------------------------------------------------------|

G-------------------------------------------------------------------|
D-------------------------------------------------------------------|
A--1-1-1-1-1-1-1-1------------------4-4-4-4-4-4-4-4-----------------|
E-------------------2-2-2-2-2-2-2-2-----------------4-4-4-4-4-4-4-4-|
B-------------------------------------------------------------------|

G-------------------------------------------------------------------|
D-------------------------------------------------------------------|
A--1-1-1-1-1-1-1-1------------------1-1-1-1-1-1-1-1-----------------|
E-------------------2-2-2-2-2-2-2-2-----------------2-2-2-2-2-2-2-2-|
B-------------------------------------------------------------------|

G-------------------------------------------------------------------|
D-------------------------------------------------------------------|
A--1-1-1-1-1-1-1-1------------------4-4-4-4-4-4-4-4-3-3-3-3-3-3-3-3-|
E-------------------2-2-2-2-2-2-2-2---------------------------------|
B-------------------------------------------------------------------|


Pre-Chorus Two (1:56-2:12)
(A little bit different)

G---------------------------------------------------------------------|
D------------------------------------------------/8-8-8-6-8-8---------|
A---------------------/9-9-8-9-8-6---1-1-1-1-1-1--------------1-1-1-1-|
E--2-2-2-2-2-2-2-2-2-2-------------9----------------------------------|
B---------------------------------------------------------------------|

G-------------------------------------------------------------------------|
D----------------------------------------------------------------6--------|
A-------------------/9-9-9-8-9-8-6-------------/9-9-------------6--6------|
E--2-2-2-2-2-2-2-2-2---------------9------------------4-4-4-4-4-----------|
B------------------------------------7-7-7-7-7----------------------------|

Chorus Two (2:12-2:45)

G--------------------------------------------|
D--------------------------------------------|
A--4--4-4---3-3--3-3---1--1-1----------------|
E-------------------------------2-2--2-2-----|
B--------------------------------------------|

G-------------------------------------------------|
D-----------------------------------------4-4-----|
A--4--4-4---3-3--3-3---1--1-1-----------4-----4---|
E-------------------------------2-2---2-----------|
B-------------------------------------------------|

G--------------------------------------------------|
D----------------------------------------------4---|
A--4--4-4-4--3-3-3-3-3---1-1-1-1-1-----------4---4-|
E-----------------------------------2-2-2--2-------|
B--------------------------------------------------|

G-------------------------------------------------|
D-----------------------------------------4-4-----|
A--4----4---3-3--3-3---1--1-1-----------4-----4---|
E-------------------------------2-2---2-----------|
B-------------------------------------------------|

Post-Chorus One (2:46-2:54)

G-------------------------------------------------------------|
D-------------------------------------------------------------|
A-------------------------------------------------------------|
E-----------------------------2-2-2-2-2-2-2-2-4-4-4-4-4-4-4-4-|
B--4--4-4-4-4-4-4-4-4-4-4-4-4---------------------------------|

Bridge (2:55-3:44)

G------------------------------|
D------------------------------|
A---------------------1---1\---|
E--2--2-2---4-4--4-4-----------|
B------------------------------|

G----------------------------|
D----------------------------|
A---------------------1---1\-|
E--2--2-2---4-4--4-4---------|
B----------------------------|

G------------------------------|
D------------------------------|
A---------------------1---1\---|
E--2--2-2---4-4--4-4-----------|
B------------------------------|

G------------------------------------|
D------------------------------------|
A---------------------1--1--1--1-1-1-|
E--2--2-2---1-1--1-1-----------------|
B------------------------------------|

G------------------|
D------------------|
A----------4--3--1-|
E--2---4-----------|
B------------------|

G----------------------------------------|
D---------------------------------6------|
A-------------------------------6--------|
E--2--2-2---1-1--1-1-1-1-1---4-------4---|
B----------------------------------------|

The just Keys and Vocals part
(3:44-4:00)

Guitar Solo (4:00-4:16)

G-----------------------------------------------------|
D-------------------------------------------4-4-3-4-3-|
A--4-4-4-4-4--3-3--3-3---1-1-1-1-1--------4-----------|
E-----------------------------------2-2-2-------------|
B-----------------------------------------------------|

G--------------------------------------------------------------------|
D------------------------------------------------------------4-3-6-4-|
A--4-4-4-4-4--4-4---3-3-3-3-3--3-3---1-1-1-1-1--1-1--------4---------|
E-----------------------------------------------------2-2-2----------|
B--------------------------------------------------------------------|

Final Chorus (4:17-4:49)

G--------------------------------------------------|
D---------------------------------------4-4-/6-6---|
A--4--4-4---3-3--3-3---1--1-1---------4------------|
E-------------------------------2-2-2--------------|
B--------------------------------------------------|

G---------------------------------------------6-5-3----| (not so novice fill)
D---------------------------------------6-4-3------6-4-|
A--4--4-4---3-3--3-3---1--1-1---------4----------------|
E---------------------2----------2-2-2-----------------|
B------------------------------------------------------|

G-----------------------------------------------------|
D--------------------------------------------4-4-/6-6-|
A--4--4-4-4---3-3-3-3-3---1-1-1-1-1--------4----------|
E-------------------------------------2-2-2-----------|
B-----------------------------------------------------|

G------------------------------------------------------|
D-----------------------------------------4-3-4-6------|
A--4--4-4-4---3-3--3-3---1--1-1---------4--------------|
E---------------------------------2-2-2----------------|
B------------------------------------------------------|

Post-Chorus Two (4:50-4:58)

G-----------------------------------------------------|
D----------------------------------4-4-4-4-4-4-4-4----|
A--6-6-6-6-6-6-6-6-6-6-6-6-6-6-6-6--------------------|
E---------------------------------------------------4-|
B-----------------------------------------------------|

Outro  (4:58-5:31)

G--------------------------------------|
D--------------------------------------|
A--1-------1------1------1------1------|
E------2------2------2------2------2---|
B--------------------------------------|

G----------|
D----------|
A--1-------|
E----------|
B----------|
       Hold

And thats how to play Wither on Bass
Feel free to e-mail questions to lalonde.lucas@gmail.com
Thanks for reading!
Rate high! :)

            
            
Suggest correction
Creating personal tab
Creating personal tab
You can edit any tab online and save it as your Personal.

You can edit, replace or remove any tab part or add personal notes – all changes will be seen only by you.

Personal tabs can be accessed anytime from any device, even offline.
Learn more »
comments
print report bad tab
guest
Wanna post a correction for this tab? Suggest correction