Oops, an error
Loading. Please wait.

Wither bass

version 2
version 2

Whole song

2,074 views 1 this week
1 commentread comment
1 2 3 4 5
1 last vote to show rating
add to favorites
×
Save as Personal and add changes to this tab that will be seen only by you. Learn more ›
×
You can save this tab as Personal to edit and correct it or add notes. All changes will be seen only by you. Learn more »
launch autoscroll
font size
0
reset
guitar tuner
backing track
0:00
0:00
edit
Autoscroll
slow
fast
+/-
esc
set tempo
stop
                             Wither
                         Dream - Theater
                        John Myung - Bass

Bass Tab by: Ricardo Costa


                                     E  E  E  E  E  E  E  E   
C||-------|-------|-------|-------|--------------------------|
G||-------|-------|-------|-------|--------------------------|
D||-------|-------|-------|-------|--------------------------|
A||-------|-------|-------|-------|--1--1--1--1--1--1--1--1--|
E||-------|-------|-------|-------|--------------------------|
B||-------|-------|-------|-------|--------------------------|


  E  E  E  E  E  E  E  E     E  E  E  E  E  E  E  E   
--------------------------|--------------------------|
--------------------------|--------------------------|
--------------------------|--------------------------|
--------------------------|--1--1--1--1--1--1--1--1--|
--2--2--2--2--2--2--2--2--|--------------------------|
--------------------------|--------------------------|


  E  E  E  E  E  E  E  E     E  E  E  E  E  E  E  E   
--------------------------|--------------------------|
--------------------------|--------------------------|
--------------------------|--------------------------|
--------------------------|--1--1--1--1--1--1--1--1--|
--2--2--2--2--2--2--2--2--|--------------------------|
--------------------------|--------------------------|


  E  E  E  E  E  E  E  E     E  E  E  E  E  E  E  E   
--------------------------|--------------------------|
--------------------------|--------------------------|
--------------------------|--------------------------|
--------------------------|--4--4--4--4--4--4--4--4--|
--2--2--2--2--2--2--2--2--|--------------------------|
--------------------------|--------------------------|


  E  E  E  E  E  E  E  E     E  E  E  E  E  E  E  E   
--------------------------|--------------------------|
--------------------------|--------------------------|
--------------------------|--------------------------|
--------------------------|--1--1--1--1--1--1--1--1--|
--4--4--4--4--4--4--4--4--|--------------------------|
--------------------------|--------------------------|


  E  E  E  E  E  E  E  E     E  E  E  E  E  E  E  E   
--------------------------|--------------------------|
--------------------------|--------------------------|
--------------------------|--------------------------|
--------------------------|--1--1--1--1--1--1--1--1--|
--2--2--2--2--2--2--2--2--|--------------------------|
--------------------------|--------------------------|


  E  E  E  E  E  E  E  E     E  E  E  E  E  E  E  E   
--------------------------|--------------------------|
--------------------------|--------------------------|
--------------------------|--------------------------|
--------------------------|--1--1--1--1--1--1--1--1--|
--2--2--2--2--2--2--2--2--|--------------------------|
--------------------------|--------------------------|


  E  E  E  E  E  E  E  E     E  E  E  E  E  E  E  E   
--------------------------|--------------------------|
--------------------------|--------------------------|
--------------------------|--------------------------|
--------------------------|--4--4--4--4--4--4--4--4--|
--2--2--2--2--2--2--2--2--|--------------------------|
--------------------------|--------------------------|


  E  E  E  E  E  E  E  E     E  E  E  E  E  E  E  E   
--------------------------|--------------------------|
--------------------------|--------------------------|
--------------------------|--------------------------|
--3--3--3--3--3--3--3--3--|--------------------------|
--------------------------|--2--2--2--2--2--2--2--2--|
--------------------------|--------------------------|


  E   E  E  E  E  E  E  E     E  E  E  E  E  E   E  E   
---------------------------|---------------------------|
---------------------------|--------------------/3--3--|
-----/4--4--4--3--1--------|---------------------------|
---------------------4--3--|--1--1--1--1--1--1---------|
--2------------------------|---------------------------|
---------------------------|---------------------------|


  E  E  E  E  E   E  E  E     E  E  E  E  E  E  E  E   
---------------------------|--------------------------|
--3--1--3--3--3\-----------|--------------------------|
---------------------------|--------------------------|
------------------1--1--1--|--------------------------|
---------------------------|--2--2--2--2--2--2--2--2--|
---------------------------|--------------------------|


  E   E  E  E  E  E  E  E     E  E  E  E  E  E  E  E   
---------------------------|--------------------------|
---------------------------|--------------------------|
-----/4--4--4--3--1--------|--3--------3--------3-----|
---------------------4--3--|--------------------------|
--2------------------------|-----1--1-----1--1-----1--|
---------------------------|--------------------------|


                                Bass Distortion!!              
  E  E  E  E   E  E  S S S S    Q.                E  H         
-----------------------------|--------------------------------|
-----------------------------|--------------------------------|
--------------/6--6--6-4-3---|--------------------------------|
---------------------------6-|--4-----------------4--4--------|
--4--4--4--4-----------------|--------------------------------|
-----------------------------|--------------------------------|


  E  Q    E  H           Q.     E  H            E  Q    E  Q    E  E   
----------------------|----------------------|------------------------|
----------------------|----------------------|------------------------|
----------------------|----------------------|------------------------|
--3--3----3--3--------|----------------------|------------------------|
----------------------|--6------6--6S--------|--2--2----2--2----2--2--|
----------------------|----------------------|------------------------|


  Q.     E  H           E  Q    E  H           Q.     E  H          
---------------------|----------------------|----------------------|
---------------------|----------------------|----------------------|
---------------------|----------------------|----------------------|
--4------4--4--------|--3--3----3--3--------|----------------------|
---------------------|----------------------|--6------6--6S--------|
---------------------|----------------------|----------------------|


  E  E  E  E  E  E  S S S S    Q    E  E  H           E  E  E  E  H         
----------------------------|----------------------|-----------------------|
----------------------------|----------------------|-----------------------|
--------------------4-4-----|----------------------|-----------------------|
-----------------4----------|--4----4--4--4--------|--3--3--3--3--3--------|
--2--2--2--2--2---------2-2-|----------------------|-----------------------|
----------------------------|----------------------|-----------------------|


                                    Out!?                              
  W                   H.            E.   S    E  E  E  E  E  E  E  E   
-------------------|-----------------------|--------------------------|
-------------------|-----------------------|--------------------------|
-------------------|-----------------------|--------------------------|
-------------------|---------------(0)-----|--1--1--1--1--1--1--1--1--|
--2----------------|--L--------------------|--------------------------|
-------------------|-----------------------|--------------------------|


  E  E  E  E  E  E  E  E     E  E  E  E  E  E  E  E   
--------------------------|--------------------------|
--------------------------|--------------------------|
--------------------------|--------------------------|
--------------------------|--1--1--1--1--1--1--1--1--|
--2--2--2--2--2--2--2--2--|--------------------------|
--------------------------|--------------------------|


  E  E  E  E  E  E  E  E     E  E  E  E  E  E  E  E   
--------------------------|--------------------------|
--------------------------|--------------------------|
--------------------------|--------------------------|
--------------------------|--1--1--1--1--1--1--1--1--|
--2--2--2--2--2--2--2--2--|--------------------------|
--------------------------|--------------------------|


  E  E  E  E  E  E  E  E     E  E  E  E  E  E  E  E   
--------------------------|--------------------------|
--------------------------|--------------------------|
--------------------------|--------------------------|
--------------------------|--4--4--4--4--4--4--4--4--|
--2--2--2--2--2--2--2--2--|--------------------------|
--------------------------|--------------------------|


  E  E  E  E  E  E  E  E     E  E  E  E  E  E  E  E   
--------------------------|--------------------------|
--------------------------|--------------------------|
--------------------------|--------------------------|
--------------------------|--1--1--1--1--1--1--1--1--|
--4--4--4--4--4--4--4--4--|--------------------------|
--------------------------|--------------------------|


  E  E  E  E  E  E  E  E     E  E  E  E  E  E  E  E   
--------------------------|--------------------------|
--------------------------|--------------------------|
--------------------------|--------------------------|
--------------------------|--1--1--1--1--1--1--1--1--|
--2--2--2--2--2--2--2--2--|--------------------------|
--------------------------|--------------------------|


  E  E  E  E  E  E  E  E     E  E  E  E  E  E  E  E   
--------------------------|--------------------------|
--------------------------|--------------------------|
--------------------------|--------------------------|
--------------------------|--1--1--1--1--1--1--1--1--|
--2--2--2--2--2--2--2--2--|--------------------------|
--------------------------|--------------------------|


  E  E  E  E  E  E  E  E     E  E  E  E  E  E  E  E   
--------------------------|--------------------------|
--------------------------|--------------------------|
--------------------------|--------------------------|
--------------------------|--4--4--4--4--4--4--4--4--|
--2--2--2--2--2--2--2--2--|--------------------------|
--------------------------|--------------------------|


  E  E  E  E  E  E  E  E     E  E  E  E  E  E  E  E   
--------------------------|--------------------------|
--------------------------|--------------------------|
--------------------------|--------------------------|
--3--3--3--3--3--3--3--3--|--------------------------|
--------------------------|--2--2--2--2--2--2--2--2--|
--------------------------|--------------------------|


  E  E   E  E  S S E  E  E     E  E  E  E  E  E   E  E   
----------------------------|---------------------------|
----------------------------|--------------------/3--3--|
--------/4--4--4-3-1--------|---------------------------|
----------------------4--3--|--1--1--1--1--1--1---------|
--2--2----------------------|---------------------------|
----------------------------|---------------------------|


  E  E  E  E  E   E  E  E     E  E  E  E  E  E  E  E   
---------------------------|--------------------------|
--3--1--3--3--3\-----------|--------------------------|
---------------------------|--------------------------|
------------------1--1--1--|--------------------------|
---------------------------|--2--2--2--2--2--2--2--2--|
---------------------------|--------------------------|


  E  E   E  E  S S E  E  E     E  E  E  E  E  E   E  E   
----------------------------|---------------------------|
----------------------------|---------------------------|
--------/4--4--4-3-1--------|--------------------/3--3--|
----------------------4--3--|---------------------------|
--2--2----------------------|--1--1--1--1--1--1---------|
----------------------------|---------------------------|


                             Bass Distortion!!              
  E  E  E  E  E  E  E  E     Q.                E  H         
--------------------------|--------------------------------|
--------------------------|--------------------------------|
--------------------6-----|--------------------------------|
-----------------6--------|--4-----------------4--4--------|
--4--4--4--4--4--------4--|--------------------------------|
--------------------------|--------------------------------|


  E  Q    E  H           Q.     E  H            E  Q    E  H          
----------------------|----------------------|-----------------------|
----------------------|----------------------|-----------------------|
----------------------|----------------------|-----------------------|
--3--3----3--3--------|----------------------|-----------------------|
----------------------|--6------6--6S--------|--2--2----2--2S--------|
----------------------|----------------------|-----------------------|


  Q.     E  H           E  Q    E  H           Q.     E  H          
---------------------|----------------------|----------------------|
---------------------|----------------------|----------------------|
---------------------|----------------------|----------------------|
--4------4--4--------|--3--3----3--3--------|----------------------|
---------------------|----------------------|--6------6--6S--------|
---------------------|----------------------|----------------------|


  E  Q.     E  E  S S S S    Q    E  E  H           E  E  E  E  H         
--------------------------|----------------------|-----------------------|
--------------------------|----------------------|-----------------------|
------------------4-4-----|----------------------|-----------------------|
---------------4----------|--4----4--4--4--------|--3--3--3--3--3--------|
--2--2------2---------2-2-|----------------------|-----------------------|
--------------------------|----------------------|-----------------------|


  E  E  E  E  H            E  E  Q    E  E  S S S S    H        H         
------------------------|---------------------------|--------------------|
------------------------|---------------------------|--------------------|
------------------------|-------------------4-4-----|--------------------|
------------------------|----------------4----------|--4--------4--------|
--6--6--6--6--6S--------|--2--2--2----2---------2-2-|--------------------|
------------------------|---------------------------|--------------------|


  E  Q    E  H           Q.     E  H            E  Q.     E  E  S S S S  
----------------------|----------------------|--------------------------|
----------------------|----------------------|--------------------------|
----------------------|----------------------|------------------4-4-----|
--3--3----3--3--------|----------------------|---------------4----------|
----------------------|--6------6--6S--------|--2--2------2---------2-2-|
----------------------|----------------------|--------------------------|


  H        E  E  E  E     E  E  E  E  E  E  E  E     E  E  E  E  E  E  E  E   
-----------------------|--------------------------|--------------------------|
-----------------------|--------------------------|--------------------------|
-----------------------|--------------------------|--------------------------|
-----------------------|--------------------------|--------------------------|
-----------------------|--------------------------|--2--2--2--2--2--2--2--2--|
--4--------4--4--4--4--|--4--4--4--4--4--4--4--4--|--------------------------|


  E  E  E  E  E  E  E  E     Q.     E  H            E  Q    E  H          
--------------------------|----------------------|-----------------------|
--------------------------|----------------------|-----------------------|
--------------------------|----------------------|-----------------------|
--------------------------|----------------------|-----------------------|
--4--4--4--4--4--4--4--4--|--2------2--2S--------|--4--4----4--4S--------|
--------------------------|----------------------|-----------------------|


  H.           E  E     H.           E  E      Q.     E  H          
---------------------|----------------------|----------------------|
---------------------|----------------------|----------------------|
---------------------|----------------------|----------------------|
---------------------|----------------------|----------------------|
--6------------L--6--|--L------------L--L\--|--2------2--2S--------|
---------------------|----------------------|----------------------|


  E  Q    E  H            W                   H.           E  E    
-----------------------|-------------------|----------------------|
-----------------------|-------------------|----------------------|
-----------------------|-------------------|----------------------|
-----------------------|-------------------|----------------------|
--4--4----4--4S--------|--6----------------|--6------------L--L\--|
-----------------------|-------------------|----------------------|


  Q.     E  H            E  Q    E  H            H.           E   E    
----------------------|-----------------------|-----------------------|
----------------------|-----------------------|-----------------------|
----------------------|-----------------------|-----------------------|
----------------------|-----------------------|-----------------------|
--2------2--2S--------|--4--4----4--4S--------|--6------------L--(6)--|
----------------------|-----------------------|-----------------------|


  H.           E  E      Q.     E  H            E  Q    E  H          
----------------------|----------------------|-----------------------|
----------------------|----------------------|-----------------------|
----------------------|----------------------|-----------------------|
----------------------|----------------------|-----------------------|
--L------------L--L\--|--2------2--2S--------|--1--1----1--1S--------|
----------------------|----------------------|-----------------------|


  H        H           H        E  E  Q        W                  
--------------------|-----------------------|--------------------|
--------------------|-----------------------|--------------------|
--------------------|-----------------------|--------------------|
--------------------|-----------------------|--------------------|
--6--------6--------|--6--------6--6--6S----|--2S----------------|
--------------------|-----------------------|--------------------|


  W                    H        H           W                  
--------------------|--------------------|--------------------|
--------------------|--------------------|--------------------|
--------------------|--------------------|--------------------|
--------------------|--4--------3--------|--------------------|
--4S----------------|--------------------|--6S----------------|
--------------------|--------------------|--------------------|


  Q.     E  H            Q.     E  E  E  E  E     H.           E  E   
----------------------|------------------------|---------------------|
----------------------|------------------------|---------------------|
----------------------|------------------------|---------------------|
----------------------|------------------------|------------------6--|
--2------2--2S--------|--1------1--1--1--1--1--|--4------------L-----|
----------------------|------------------------|---------------------|


  H.           Q                                                             
--------------------|-------|-------|-------|-------|-------|-------|-------|
--------------------|-------|-------|-------|-------|-------|-------|-------|
--6-----------------|-------|-------|-------|-------|-------|-------|-------|
--------------------|-------|-------|-------|-------|-------|-------|-------|
---------------4----|-------|-------|-------|-------|-------|-------|-------|
--------------------|-------|-------|-------|-------|-------|-------|-------|


          E  E  E  E  H           E  Q    E  H           E  E  E  E  H          
-------|-----------------------|----------------------|------------------------|
-------|-----------------------|----------------------|------------------------|
-------|-----------------------|----------------------|------------------------|
-------|--4--4--4--4--4--------|--3--3----3--3--------|------------------------|
-------|-----------------------|----------------------|--6--6--6--6--6S--------|
-------|-----------------------|----------------------|------------------------|


  E  E  E  E  E  E  S S E     E  E  E  E  Q    E  E     E  E  E  E  Q    E  E   
---------------------------|-------------------------|-------------------------|
---------------------------|-------------------------|-------------------------|
--------------4--4--3-4-3--|-------------------------|-------------------------|
-----------4---------------|--4--4--4--4--4----4--4--|--3--3--3--3--3----3--3--|
--2--2--2------------------|-------------------------|-------------------------|
---------------------------|-------------------------|-------------------------|


  E  E  E  E  Q    E  E     E  E  E  E  E  E  E  E     Q    E  E  H          
-------------------------|--------------------------|-----------------------|
-------------------------|--------------------------|-----------------------|
-------------------------|--------------4--3--6--4--|-----------------------|
-------------------------|-----------4--------------|--4----4--4--4S--------|
--6--6--6--6--6----6--6--|--2--2--2-----------------|-----------------------|
-------------------------|--------------------------|-----------------------|


  E  Q    E  H           Q.     E  H            E  E  E  E  E  E    E  E   
----------------------|----------------------|----------------------------|
----------------------|----------------------|----------------------------|
----------------------|----------------------|--------------4--4--4g6--6--|
--3--3----3--3--------|----------------------|-----------4----------------|
----------------------|--6------6--6S--------|--2--2--2-------------------|
----------------------|----------------------|----------------------------|


                                            Out!?                       
  Q.     E  H            E  Q    E  Q.      E       Q.     E  H         
----------------------|--------------------------|---------------------|
----------------------|--------------------------|---------------------|
----------------------|--------------------------|---------------------|
--4------4--4S--------|--3--3----3--3------------|---------------------|
----------------------|--------------------(0)---|--6------6--6--------|
----------------------|--------------------------|---------------------|


  E  E  E  E   S S S S S S S S    Q    E  E  H            E  E  E  E  H         
-------------------------------|-----------------------|-----------------------|
---------------------6-5-3-----|-----------------------|-----------------------|
---------------6-4-3-------6-3-|-----------------------|-----------------------|
-------------------------------|--4----4--4--4S--------|--3--3--3--3--3--------|
--2--2--2--1\------------------|-----------------------|-----------------------|
-------------------------------|-----------------------|-----------------------|


  E  E  E  E  H            E  E  E  E  E  E  E  E     Q    E  E  H         
------------------------|--------------------------|----------------------|
------------------------|--------------------------|----------------------|
------------------------|--------------4--4--6--6--|----------------------|
------------------------|-----------4--------------|--4----4--4--4--------|
--6--6--6--6--6S--------|--2--2--2-----------------|----------------------|
------------------------|--------------------------|----------------------|


  E  Q    E  H           Q.     E  H            E  E  E  E  E  E  E  E   
----------------------|----------------------|--------------------------|
----------------------|----------------------|--------------------------|
----------------------|----------------------|--------------4--3--4--6--|
--3--3----3--3--------|----------------------|-----------4--------------|
----------------------|--6------6--6S--------|--2--2--2-----------------|
----------------------|----------------------|--------------------------|


  E  E  E  E  E  E  E  E     E  E  E  E  E  E  E  E   
--------------------------|--------------------------|
--------------------------|--------------------------|
--------------------------|--------------------------|
--6--6--6--6--6--6--6--6--|--6--6--6--6--6--6--6--6--|
--------------------------|--------------------------|
--------------------------|--------------------------|


    E  E  E  E  E  E  E  E     H.           E  E     W                  
----------------------------|---------------------|--------------------|
----------------------------|---------------------|--------------------|
----------------------------|---------------------|--------------------|
--6g9--9--9--9--9--9--9--9--|---------------------|--------------------|
----------------------------|--4------------L-----|--6S----------------|
----------------------------|---------------------|--------------------|


  W                    W                    W                  
--------------------|--------------------|--------------------|
--------------------|--------------------|--------------------|
--------------------|--------------------|--------------------|
--------------------|--------------------|--------------------|
--2S----------------|--6S----------------|--2S----------------|
--------------------|--------------------|--------------------|


  W                    W                    W                  
--------------------|--------------------|--------------------|
--------------------|--------------------|--------------------|
--------------------|--------------------|--------------------|
--------------------|--------------------|--------------------|
--6S----------------|--2S----------------|--6S----------------|
--------------------|--------------------|--------------------|


  W                   H          H            H        H         
-------------------|-----------------------|--------------------|
-------------------|-----------------------|--------------------|
-------------------|-----------------------|--------------------|
-------------------|-----------------------|--------------------|
--2----------------|--LS--------(6)--------|--L--------L--------|
-------------------|-----------------------|--------------------|


  H        H          
--------------------||
--------------------||
--------------------||
--------------------||
--L-----------------||
--------------------||




Duration Legend
---------------
W - whole
H - half
Q - quarter
E - 8th
S - 16th
T - 32nd
X - 64th
. - note dotted
|-n-|  - n-tuplets


Tablature Legend
----------------
L - tied note
x - dead note
g - grace note
(n) - ghost note
> - accentuded note
NH - natural harmonic
AH - artificial harmonic
TH - tapped harmonic
SH - semi harmonic
PH - pitch harmonic
h - hammer on
p - pull off
b - bend
br - bendRelease
pb - preBend
pbr - preBendRelease
brb - bendReleaseBend
\n/ - tremolo bar dip
\n - tremolo bar dive
-/n - tremolo bar Release up
/n\ - tremolo bar inverted dip
/n - tremolo bar return
-\n - tremolo bar Release down
S - shift slide
s - legato slide
/ -  slide into from below or out of upwards
\ -  slide into from above or out of downwards
~ - vibrato
W - wide vibrato
tr - trill
TP - tremolo picking
T - tapping
S - slap
P - pop
< - fade in
^ - brush up
v - brush down

            
            
Suggest correction
Creating personal tab
Creating personal tab
You can edit any tab online and save it as your Personal.

You can edit, replace or remove any tab part or add personal notes – all changes will be seen only by you.

Personal tabs can be accessed anytime from any device, even offline.
Learn more »
Give kudos to tab author, rate the tab!
1 2 3 4 5
comments
print report bad tab
1 comment total.
0 reply
waltervt 143 Aug 18, 2011 08:53 AM

Perfect tab, mate! I'm using it to correct to guitarpro version.
Cheers

guest
You may want to rate the tab now too:
select rating
Wanna post a correction for this tab? Suggest correction