Oops, an error
Loading. Please wait.

Wither guitar pro

version 4
69,941 views 33 this week
6 commentsread comments
1 2 3 4 5
x 36
add to favorites
guitar tuner
Autoscroll
slow
fast
+/-
esc
set tempo
stop
"Wither"
demo version
Play now

or get full version for Free

×
Get full version now!
Learn and play this song
in Tab Pro
Try for free

or get $10 off Welcome Bonus

Get welcome bonus
Get access to Tab Pro version of “Wither”!
Tab Pro is a premium guitar tab service, available on PC, Mac, iOS and Android
TRY FOR FREE
To download “Wither” Guitar Pro tab click button below
Please note that you must have Guitar Pro software installed on your
computer in order to view this file.
Suggest correction
comments
report bad tab
6 comments total. Showing first comments.
+2 reply
xberserkx 356 Jan 06, 2010 11:50 AM

very nice tab, however John doesn't tap the end part of the solo it's more like this

----------------------------------------------------|
-------------14-16-14-16-14----14-16-14-16-14----14-|
----------15----------------15----------------15----|
----------------------------------------------------|
----------------------------------------------------|
----------------------------------------------------|
----------------------------------------------------|

----------------------------------------------------|
----------------18-14-18-14----14-18-14-18-14----14-|
----------------------------15----------------15----|
----------------------------------------------------|
----------------------------------------------------|
----------------------------------------------------|
----------------------------------------------------|

----------------------------------------------------|
----------------19-14-19-14----14-19-14-19-14----14-|
----------------------------15----------------15----|
----------------------------------------------------|
----------------------------------------------------|
----------------------------------------------------|
----------------------------------------------------|

+3 reply
yesfan3587 10 Mar 02, 2010 04:53 PM

Just a small correction: Petrucci wrote the lyrics for this one. James Labrie only writes lyrics for a handful of songs.

+1 reply
slash.r0cks 4,820 Apr 10, 2010 03:42 AM

Yeah, apart from the corrections posted, this is flawless. 5*

guest
You may want to rate the tab now too:
select rating