Oops, an error
Loading. Please wait.

Ytse Jam bass

version 2
version 2

Whole song

Interactive

3,034 views 1 this week
1 commentread comment
1 2 3 4 5
x 3
add to favorites
×
Save as Personal and add changes to this tab that will be seen only by you. Learn more ›
×
You can save this tab as Personal to edit and correct it or add notes. All changes will be seen only by you. Learn more »
launch autoscroll
font size
0
reset
guitar tuner
backing track
0:00
0:00
edit
Autoscroll
slow
fast
+/-
esc
set tempo
stop
Author
Difficulty
Group: Dream Theater
Song: Ytse Jam
Album: When Dream And Day Unite.
Tab by: Shadbass

Tuning (E A D G) John Myung

||--4-----------2---10/12--||
||--2---2---2---1----------||
||------1---0--------------||
||-------------------------||

||--------------------------|---------------------|
||o--12/11\12-0-14/12\14-0--|--15/14\15-17/15\17--|
||o-------------------------|---------------------|
||--------------------------|---------------------|

|------------------------------|-15/14\15-14/12\14-12/10\12-10/9\10-|| X6
|-15/14\15-14/12\14-12/11\12-0-|-----------------------------------o||
|------------------------------|-----------------------------------o||
|------------------------------|------------------------------------||

||----------------------------------------|-----------------------|
||o------------------------------------1-2|-2-2\0-2-2-2/3-2-2-2\0-|
||o-0-0-1---0-0-1-4--0-0-1---0-1-2-3-4----|-----------------------|
||--------3----------------3--------------|-----------------------|

|-----1-2-3-4-5--||  X3
|-2-3-----------o||
|---------------o||
|----------------||

||---------------------------------------------------|
||o--------------------------------------------------|
||o-7/6\7-8/7\8-11/8\11-12/11\12-11/8\11-8/7\8-7/6\7-|
||---------------------------------------------------|

|----------------------||
|-10/9\10-9/8\9-7/6\7-o||
|---------------------o||
|----------------------||

|--------------------------------------------------|
|-7/6\7-8/7\8-11/8\11-12/11\12-11/8\11-8/7\8-7/6\7-|
|--------------------------------------------------|
|--------------------------------------------------|

|-10/9\10-9/8\9-7/6\7-|
|---------------------|
|---------------------|
|---------------------|

|--------------------------------------------------|
|--------------------------------------------------|
|-7/6\7-8/7\8-11/8\11-12/11\12-11/8\11-8/7\8-7/6\7-|
|--------------------------------------------------|

|----------------------|
|-10/9\10-9/8\9-7/6\7--|
|----------------------|
|----------------------|


||--------------------------|---------------------|
||o--12/11\12-0-14/12\14-0--|--15/14\15-17/15\17--|
||o-------------------------|---------------------|
||--------------------------|---------------------|

|----------------------------|-15/14\15-14/12\14-12/10\12-10/9\10-|| X2
|-15/14\15-14/12\14-12/11\12-|-----------------------------------o||
|----------------------------|-----------------------------------o||
|----------------------------|------------------------------------||

|----------------------15-14-12----|----------------------19-17------------|
|-12-14-15----------12----------15-|-12-14-15----------12-------20-19-17-15|
|-------------12-15----------------|-------------12-15---------------------|
|----------15----------------------|----------15---------------------------|

|--------------------------|---------------|
|-0-2-3-------0-/8-7-5-3-1-|-0-2-3-------0-|
|---------0-3--------------|---------0-3---|
|-------3------------------|-------3-------|

|----------------------------|------------------------------------|
|-15/14\15-14/12\14-12/10\12-|------------------------------------|
|----------------------------|-15/14\15-14/12\14-12/10\12-10/9\10-|
|----------------------------|------------------------------------|

||------------------------------------3\2------||   X3
||o--------------------0-0-----3-3-2-2-----3--o||
||o-0---1-0----1-1-3-3-----4-4----------------o||
||---------------------------------------------||

|------------------------------------|
|--------------------0-0-----3-3-2-2-|
|-0---1-0----1-1-3-3-----4-4---------|
|------------------------------------|

Keyboard Solo:
||---------------3\2----|----------------3\2----||   X4
||o-------------------3-|---------1-1-1-----3--o||
||o-0-0-0-0-1-1-1-------|-0-0-0-0--------------o||
||----------------------|-----------------------||

Guitar Solo:
||-----------------------------------------||    X4
||o---------------------------------------o||
||o-------------------------5-5-5-5-------o||
||--3-3-3-3-4-4-4-4-3-3-3-3---------5\4-3--||

Bass Solo:
|-12-12-12-12\15-151515-15\17-17\19-19-1919\20-|
|----------------------------------------------|
|----------------------------------------------|
|----------------------------------------------|

|------------------------------------------------|
|-20/18\19---------------------------------------|
|----------18/16\17------------------------------|
|-------------------16/14\15-14/12\13-12/10\11\9-|

The Rest of the solo is very fast to figure it! 
You improve the rest of the solo!

Drum Solo:
|----------------------------------------------|
|----------------------------------------------|
|----------------------------------------------|
|----------------------------------------------|

||------------5-5-|-----------5----||
||o-----5-6-7-----|-----5-7-6-----o||
||o-5-8-----------|-5-8---------4-o||
||----------------|----------------||

|------------------------------------------|------------5-|
|-----------------------------8--6---------|-----5-6-7----|
|-777777-555555-777777-888888----------8-6-|-5-8----------|
|----------------------------------8-6-----|--------------|

|------------------------------------------------------------|
|-121212121212-151515151515-171717171717-191919191919-20-19\-|
|------------------------------------------------------------|
|------------------------------------------------------------|

||--------------------------------------------------------||   X2
||o------------------------------------------------------o||
||o----------------------------------------777777-555555-o||
||-000000000000-000000000000-000000000000-----------------||

|--------------------------------------------|
|----------------------------------------8—6-|
|-777777777777-555555555555-888888888888-----|
|--------------------------------------------|

|----------------------------------------8-6-----|
|-777777777777-555555555555-888888888888---------|
|------------------------------------------------|
|------------------------------------------------|

||-----------------------------------------------||
||o----------------------------------------8—6--o||
||o-777777777777-555555555555-888888888888------o||
||-----------------------------------------------||

||--------------------------------------------------------||   X4
||o----------------------------------------888888—666666-o||
||o-777777777777-555555555555-888888888888---------------o||
||--------------------------------------------------------||

||-------------------||
||o-----------------o||
||o-7-7-7-5-7-7-7-8-o||
||-------------------||

||--------------------------|---------------------|
||o--12/11\12-0-14/12\14-0--|--15/14\15-17/15\17--|
||o-------------------------|---------------------|
||--------------------------|---------------------|

|------------------------------|-15/14\15-14/12\14-12/10\12-10/9\10-|| X3
|-15/14\15-14/12\14-12/11\12-0-|-----------------------------------o||
|------------------------------|-----------------------------------o||
|------------------------------|------------------------------------||

|-7/9\7-7/5\7-5/3\5-|
|-------------------|
|-------------------|
|-------------------|

|-4--------2-|
|-2--2--2--1-|
|----1--0----|
|------------|

|-----------5----|
|-----5-6-7---10-|
|-5-8------------|
|----------------|	

Please rate it after u learn it! 
The BASS is the BEST!!!       _____   Quiq’       ________
                              |    \          /       |
_!,,! !,,!_                   |     \________/        |
                              |                       |
     o/--|---------------------------------------|--| | 
    o/---|---------------------------------------|--| |
   o/----|---------------------------------------|--| |
  o/-----|---------------------------------------|--| |
                              |       _______         |
                              |      /       \  O  O  |
                              |_____/         \_______|



            
            
Suggest correction
Creating personal tab
Creating personal tab
You can edit any tab online and save it as your Personal.

You can edit, replace or remove any tab part or add personal notes – all changes will be seen only by you.

Personal tabs can be accessed anytime from any device, even offline.
Learn more »
Give kudos to tab author, rate the tab!
1 2 3 4 5
comments
print report bad tab
1 comment total.
0 reply
tetsuma 70 Jun 15, 2007 08:03 PM

Non accurate, completely.

guest
You may want to rate the tab now too:
select rating
Wanna post a correction for this tab? Suggest correction