Oops, an error
Loading. Please wait.

Ode To The Sun guitar pro

version 1
version 1

Whole song

Interactive

by dredg
4,768 views 1 this week
1 commentread comment
1 2 3 4 5
x 5
add to favorites
guitar tuner
Autoscroll
slow
fast
+/-
esc
set tempo
stop
"Ode To The Sun"
demo version
Play now

or get full version for Free

×
Get full version now!
Learn and play this song
in Tab Pro
Try for free

or get $10 off Welcome Bonus

Get welcome bonus
Get access to Tab Pro version of “Ode To The Sun”!
Tab Pro is a premium guitar tab service, available on PC, Mac, iOS and Android
TRY FOR FREE
To download “Ode To The Sun” Guitar Pro tab click button below
Please note that you must have Guitar Pro software installed on your
computer in order to view this file.
Suggest correction
comments
report bad tab
1 comment total.
0 reply
beginningandend 21 Dec 04, 2008 07:54 AM

spot on but i think in the second and third chorus's instead of going
d#|----------------------------------|
A#|----------------------------------|
F#|----------------------------------|
C#|-4---2---0---2---4---2---0---2----|
G#|-4---2---0---2---4---2---0---2----|
C#|-4---2---0---2---4---2---0---2----|

it should go
d#|----------------------------------|
A#|----------------------------------|
F#|----------------------------------|
C#|-4---2---0---2---4---7---0---2----|
G#|-4---2---0---2---4---7---0---2----|
C#|-4---2---0---2---4---7---0---2----|

also i like to play them as full chords like

but dont think that really matters to be honest especially if theres the second guitar playing as well.
cheers
adam

guest
You may want to rate the tab now too:
select rating