Oops, an error
Loading. Please wait.

Sang Real tab

version 1
version 1

Whole song

by dredg
3,345 views 6 this week
2 commentsread comments
1 2 3 4 5
x 3
add to favorites
×
Save as Personal and add changes to this tab that will be seen only by you. Learn more ›
×
You can save this tab as Personal to edit and correct it or add notes. All changes will be seen only by you. Learn more »
launch autoscroll
font size
0
reset
how to read this tab
guitar tuner
edit
Autoscroll
slow
fast
+/-
esc
set tempo
stop
Author
Difficulty
-------------------------------------------------------------------------------
                             Sang Real - Dredg
-------------------------------------------------------------------------------
Tabbed by: Mucki
Tuning: Standard - EADGBe

Sang Real by Dredg tabbed for a single guitar (acoustic or whatever you like)

INTRO

try to let the notes ring where possible

   4 +   1 + 2 + 3 + 4 +   1 + 2 + 3 + 4 +   1 + 2 + 3 + 4 +
e|-----|-----------------|-----------------|---------------1-|
B|-----|-----------------|-----------------|-----------------|
G|-3/5-|-2---------------|-------------3/5-|-2---------------|
D|-----|---0-------------|-----------------|---0-------------|
A|-----|-----------------|-----------------|-----------------|
E|-----|-----------------|-----------------|-----------------|

                    Gm                Bb                F
   1 + 2 + 3 + 4 +   1 + 2 + 3 + 4 +   1 + 2 + 3 + 4 +   1 + 2 + 3 + 4 +
e|-----------------|-----------------|-----------------|-------------1---|
B|-----------------|-----------------|-6---------------|-----------------|
G|-------------3/5-|-2---------------|-------------3/5-|-2---------------|
D|-----------------|---0-------------|-----------------|---0-------------|
A|-----------------|-----------------|-----------------|-----------------|
E|-----------------|-3-----3-----3---|-6-----6---------|-1-----1-----1---|

   C
   1 + 2 + 3 + 4 +
e|-3---------------|
B|-----------------|
G|-----------------|
D|-----------------|
A|-3-----3---------|
E|-----------------|


That was the slide-guitar part tabbed for guitar with added bass notes (to play
it alone).
In the song the guitar is acutally playing something like this:

                    Gm                Bb                F
   1 + 2 + 3 + 4 +   1 + 2 + 3 + 4 +   1 + 2 + 3 + 4 +   1 + 2 + 3 + 4 +
e|-----------------|-----------------|-----------------|-----------------|
B|-----------------|---------------33|3333333333-------|-----------------|
G|-------------3/5-|-2---------------|-------------3/5-|-2---------------|
D|-----------------|---0---0-0-------|-----------------|---0---0-0---3---|
A|-----------------|-----------------|-----------------|-----------------|
E|-----------------|-----------------|-----------------|-----------------|

   C
   1 + 2 + 3 + 4 +
e|-----------------|
B|-----------------|
G|-----------------|
D|-2---------------|
A|-----------------|
E|-----------------|


VERSE (Piano Part)

This part has when played live a lot of variations
so i added some optional notes in brackets with
a *-sign and an explanation to the right.
Hope it doesn't get too confusing this way.

Play with triplet feeling (listen to the song to get it right)

  Gm
   1  ,  +  ,  2  ,  +  ,  3  ,  +  ,  4  ,  +  ,
e|-------------6--------5--------10----------10---|
B|-------8----------------------------------------|
G|----7----(7)*---7-----------7-----------7-------|
D|-5-----------------5----(5)**-------(5)**-------|
A|------------------------------------------------|
E|------------------------------------------------|

 Gm
   1  ,  +  ,  2  ,  +  ,  3  ,  +  ,  4  ,  +  ,
e|-------------6--------5--------10----------10---|
B|-------8----------------------------------------|
G|----7----(7)*---7-----------7-----------7-------|
D|-5-----------------5----(5)**-------(5)**-------|
A|------------------------------------------------|
E|------------------------------------------------|

  F
   1  ,  +  ,  2  ,  +  ,  3  ,  +  ,  4  ,  +  ,
e|-------------6--------5--------8-----------8----|   *He sometimes plays these live
B|-------6----------------------------------------|    but i don't think they're
G|----7----(7)*---7-----------7-----------7-------|    in the recording.
D|------------------------------------------------|  **I think he's not playing
A|-8-----------------8----(8)**-------(8)**-------|    these notes but on guitar
E|------------------------------------------------|    it sounds better (less empty)
                                                       with them. It's your choice.
  C
   1  ,  +  ,  2  ,  +  ,  3  ,  +  ,  4  ,  +  ,
e|------------------------------------------------|
B|-------------5--------5--------6--------8-------|
G|-------5--------5----(5)***---(7)***---(9)***---| ***Play these in addition when
D|----5----(5)*------5-------(5)*-----(5)*--------|    it leads into the Refrain
A|-3----------------------------------------------|
E|------------------------------------------------|


REFRAIN 1

The chords are
D# F Gm D
D# F Bb D
D# F

I'll just give an suggestion on how to play these chords. If you don't like
it then play them the way you prefer.
In the recording the guitar isn't actually playing any chords, thats all the
piano (guitar is doing the part tabbed below). I found a live acoustic verison
(http://www.youtube.com/watch?v=HmuytGMlItc) where guitar is doing the chords,
but he has tuned his guitar two steps down there, so he can play almost all
of them as open chords. (and i don't like twisting my pins all the time ;)

Rhythmically i just wrote down the accents. You'll get the rest of the rhythm
in your own.

  D#                F                 Gm                 D
   1 + 2 + 3 + 4 +   1 + 2 + 3 + 4 +   1 + 2 + 3 + 4 +   1 + 2 + 3 + 4 +
e|-3-----3-----3---|-5-----5-----5---|-----------------|-2-----2-----2---|
B|-4-----4-----4---|-6-----6-----6---|-3-----3-----3---|-3-----3-----3---|
G|-3-----3-----3---|-5-----5-----5---|-3-----3-----3---|-2-----2-----2---|
D|-1-----1-----1---|-3-----3-----3---|-0-----0-----0---|-0-----0-----0---|
A|-----------------|-----------------|-----------------|-----------------|
E|(3)*--(3)*--(3)*-|(5)*--(5)*--(5)*-|-3-----3-----3---|-----------------|

  D#                 F                 Bb                D
   1 + 2 + 3 + 4 +   1 + 2 + 3 + 4 +   1 + 2 + 3 + 4 +   1 + 2 + 3 + 4 +
e|-3-----3-----3---|-5-----5-----5---|-----------------|-2-----2-----2---|
B|-4-----4-----4---|-6-----6-----6---|-6-----6-----6---|-3-----3-----3---|
G|-3-----3-----3---|-5-----5-----5---|-7-----7-----7---|-2-----2-----2---|
D|-1-----1-----1---|-3-----3-----3---|-----------------|-0-----0-----0---|
A|-----------------|-----------------|-----------------|-----------------|
E|(3)*--(3)*--(3)*-|(5)*--(5)*--(5)*-|-6-----6-----6---|-----------------|

  D#                 F
   1 + 2 + 3 + 4 +   1 + 2 + 3 + 4 +
e|-3-----3-----3---|-5-----5-----5---|
B|-4-----4-----4---|-6-----6-----6---|
G|-3-----3-----3---|-5-----5-----5---| hold the last chord
D|-1-----1-----1---|-3-----3-----3---|
A|-----------------|-----------------|
E|(3)*--(3)*--(3)*-|(5)*--(5)*--(5)*-|

*I added the notes in brackets optionaly if you like more bass in the chords.
 Just leave out the the notes on the D string if you choose to add the bass.
 But beware, the bass note here is not the keynote of the chord, so it could
 sound awkward if you're playing together with an bassist for example.


Here are in addition the view notes the lead guitar is playing during the refrain:

Play with Delay

  D#                F                 Gm                 D
   1 + 2 + 3 + 4 +   1 + 2 + 3 + 4 +   1 + 2 + 3 + 4 +   1 + 2 + 3 + 4 +
e|-----------------|-----------------|-----------------|-2-2-2-2-2-2-2-2-|
B|-----------------|-----------------|-----------------|-----------------|
G|-0-0-0-0-0-0-0-0-|-2-2-2-2-2-2-2-2-|-3-3-3-3-3-3-3-3-|(2-2-2-2-2-2-2-2)| Live he's doing the
D|-----------------|-----------------|-----------------|-----------------| 2 on the Gstring instead
A|-----------------|-----------------|-----------------|-----------------| of the 2 on the e.
E|-----------------|-----------------|-----------------|-----------------|

  D#                 F                 Bb                D
   1 + 2 + 3 + 4 +   1 + 2 + 3 + 4 +   1 + 2 + 3 + 4 +   1 + 2 + 3 + 4 +
e|-----------------|-----------------|-----------------|-2-2-2-2-2-2-2-2-|
B|-----------------|-----------------|-3-3-3-3-3-3-3-3-|-----------------|
G|-0-0-0-0-0-0-0-0-|-2-2-2-2-2-2-2-2-|-----------------|-----------------|
D|-----------------|-----------------|-----------------|-----------------|
A|-----------------|-----------------|-----------------|-----------------|
E|-----------------|-----------------|-----------------|-----------------|

  D#                 F
   1 + 2 + 3 + 4 +   1 + 2 + 3 + 4 +
e|-3-3-3-3-3-3-3-3-|-5-5-5-5-5-5-5-5-|
B|-----------------|-----------------|
G|-----------------|-----------------|
D|-----------------|-----------------|
A|-----------------|-----------------|
E|-----------------|-----------------|


POST-REFRAIN

again let the notes ring
                                       Gm                Bb
   1 + 2 + 3 + 4 +   1 + 2 + 3 + 4 +    1 + 2 + 3 + 4 +   1 + 2 + 3 + 4 +
e|------------------|-----------------|-----------------|-----------------|
B|------------------|-----------------|-----------------|-6---------------|
G|------------------|-------------3/5-|-2---------------|-------------3/5-|
D|------------------|-----------------|---0-------------|-----------------|
A|------------------|-----------------|-----------------|-----------------|
E|------------------|-----------------|-3-----3-----3---|-6-----6---------|

  F                 C
   1 + 2 + 3 + 4 +   1 + 2 + 3 + 4 +
e|-------------1---|-3---------------|
B|-----------------|-----------------|
G|-2---------------|-----------------|
D|---0-------------|-----------------|
A|-----------------|-3-----3---------|
E|-1-----1-----1---|-----------------|

VERSE


REFRAIN 2

The second Refrain is pretty much the same as the first one, it's just a view
chords longer

D# F Gm D
D# F Bb D
D# F Gm D
D# F

   D#                F                 Gm                 D
   1 + 2 + 3 + 4 +   1 + 2 + 3 + 4 +   1 + 2 + 3 + 4 +   1 + 2 + 3 + 4 +
e|-3-----3-----3---|-5-----5-----5---|-----------------|-2-----2-----2---|
B|-4-----4-----4---|-6-----6-----6---|-3-----3-----3---|-3-----3-----3---|
G|-3-----3-----3---|-5-----5-----5---|-3-----3-----3---|-2-----2-----2---|
D|-1-----1-----1---|-3-----3-----3---|-0-----0-----0---|-0-----0-----0---|
A|-----------------|-----------------|-----------------|-----------------|
E|(3)---(3)---(3)--|(5)---(5)---(5)--|-3-----3-----3---|-----------------|

  D#                 F                 Bb                D
   1 + 2 + 3 + 4 +   1 + 2 + 3 + 4 +   1 + 2 + 3 + 4 +   1 + 2 + 3 + 4 +
e|-3-----3-----3---|-5-----5-----5---|-----------------|-2-----2-----2---|
B|-4-----4-----4---|-6-----6-----6---|-6-----6-----6---|-3-----3-----3---|
G|-3-----3-----3---|-5-----5-----5---|-7-----7-----7---|-2-----2-----2---|
D|-1-----1-----1---|-3-----3-----3---|-----------------|-0-----0-----0---|
A|-----------------|-----------------|-----------------|-----------------|
E|(3)---(3)---(3)--|(5)---(5)---(5)--|-6-----6-----6---|-----------------|

  D#                 F                 Gm                D
   1 + 2 + 3 + 4 +   1 + 2 + 3 + 4 +   1 + 2 + 3 + 4 +   1 + 2 + 3 + 4 +
e|-3-----3-----3---|-5-----5-----5---|-----------------|-2-----2-----2---|
B|-4-----4-----4---|-6-----6-----6---|-3-----3-----3---|-3-----3-----3---|
G|-3-----3-----3---|-5-----5-----5---|-3-----3-----3---|-2-----2-----2---|
D|-1-----1-----1---|-3-----3-----3---|-0-----0-----0---|-0-----0-----0---|
A|-----------------|-----------------|-----------------|-----------------|
E|(3)---(3)---(3)--|(5)---(5)---(5)--|-3-----3-----3---|-----------------|

  D#                 F
   1 + 2 + 3 + 4 +   1 + 2 + 3 + 4 +
e|-3-----3-----3---|-5-----5-----5---|
B|-4-----4-----4---|-6-----6-----6---|
G|-3-----3-----3---|-5-----5-----5---|
D|-1-----1-----1---|-3-----3-----3---|
A|-----------------|-----------------|
E|(3)---(3)---(3)--|(5)---(5)---(5)--|


Here's the lead-guitar part for Refrain 2

Play with Delay

  D#                 F                 Gm                D
   1 + 2 + 3 + 4 +   1 + 2 + 3 + 4 +   1 + 2 + 3 + 4 +   1 + 2 + 3 + 4 +
e|-----------------|-----------------|-----------------|-2-2-2-2-2-2-2-2-|
B|-----------------|-----------------|-----------------|-----------------|
G|-0-0-0-0-0-0-0-0-|-2-2-2-2-2-2-2-2-|-3-3-3-3-3-3-3-3-|(2-2-2-2-2-2-2-2)|
D|-----------------|-----------------|-----------------|-----------------|
A|-----------------|-----------------|-----------------|-----------------|
E|-----------------|-----------------|-----------------|-----------------|

  D#                 F                 Bb               D
   1 + 2 + 3 + 4 +   1 + 2 + 3 + 4 +   1 + 2 + 3 + 4 +   1 + 2 + 3 + 4 +
e|-----------------|-----------------|-----------------|-2-2-2-2-2-2-2-2-|
B|-----------------|-----------------|-3-3-3-3-3-3-3-3-|-----------------|
G|-0-0-0-0-0-0-0-0-|-2-2-2-2-2-2-2-2-|-----------------|-----------------|
D|-----------------|-----------------|-----------------|-----------------|
A|-----------------|-----------------|-----------------|-----------------|
E|-----------------|-----------------|-----------------|-----------------|

  D#                 F                 Gm                D
   1 + 2 + 3 + 4 +   1 + 2 + 3 + 4 +   1 + 2 + 3 + 4 +   1 + 2 + 3 + 4 +
e|-3-3-3-3-3-3-3-3-|-5-5-5-5-5-5-5-5-|-----------------|-2-2-2-2-2-2-2-2-|
B|-----------------|-----------------|-----------------|-----------------|
G|-----------------|-----------------|-3-3-3-3-3-3-3-3-|-----------------|
D|-----------------|-----------------|-----------------|-----------------|
A|-----------------|-----------------|-----------------|-----------------|
E|-----------------|-----------------|-----------------|-----------------|

   D#                F
   1 + 2 + 3 + 4 +   1 + 2 + 3 + 4 +
e|-----------------|-----------------|
B|-----------------|-----------------|
G|-0-0-0-0-0-0-0-0-|-2-2-2-2-2-2-2-2-|
D|-----------------|-----------------|
A|-----------------|-----------------|
E|-----------------|-----------------|


 BREAK

   1 , + , 2 , + , 3 , + , 4 , + ,    1 , + , 2 , + , 3 , + , 4 , + ,
e|---------------------------------|----------------------------------|
B|-8-----11----10----6-----8-----5-|------6-----3-----5-----1-----3---|
G|---------------------------------|----------------------------------|
D|-8-----12----10----7-----8-----5-|------7-----3-----5-----2-----3---|
A|---------------------------------|----------------------------------|
E|---------------------------------|----------------------------------|

   1 , + , 2 , + , 3 , + , 4 , + ,    1 , + , 2 , + , 3 , + , 4 , + ,
e|---------------------------------|----------------------------------|
B|-5-----------5-----------5-------|------5-----5-----5-----6-----8---|
G|-5-----------5-----------5-------|------5-----5-----5-----7-----9---|
D|---------------------------------|----------------------------------|
A|-3-------------------------------|--3-------------------------------|
E|---------------------3-----------|----------------------------------|


   1 , + , 2 , + , 3 , + , 4 , + ,    1 , + , 2 , + , 3 , + , 4 , + ,
e|-15----18----17----13----15----12|------13----10----12----8-----10--|*
B|---------------------------------|----------------------------------|
G|-15----19----17----14----15----12|------14----10----12----9-----10--|
D|---------------------------------|----------------------------------|
A|---------------------------------|----------------------------------|
E|---------------------------------|----------------------------------|


   1 , + , 2 , + , 3 , + , 4 , + ,    1 , + , 2 , + , 3 , + , 4 , + ,
e|-10----------10------------------|----------------------------------|*
B|-13----------13----------5-------|------5-----5-----5-----6-----8---|
G|-------------------------5-------|------5-----5-----5-----7-----9---|
D|---------------------------------|----------------------------------|
A|-10------------------------------|--3-------------------------------|
E|---------------------------------|----------------------------------|


*If these 4 measures are two high for your guitar, or you don't feel
 comfortable playing them, then i suggest you to either repeat the
 first 4 measures of the break, or to play this variation instead
 (made that one on my own and it fits in quite well i think)

   1 , + , 2 , + , 3 , + , 4 , + ,    1 , + , 2 , + , 3 , + , 4 , + ,
e|-6-----10----8-----5-----6-----3-|------5-----1-----3-----0-----1---|
B|-8-----11----10----6-----8-----5-|------6-----3-----5-----1-----3---|
G|---------------------------------|----------------------------------|
D|---------------------------------|----------------------------------|
A|---------------------------------|----------------------------------|
E|---------------------------------|----------------------------------|

   1 , + , 2 , + , 3 , + , 4 , + ,    1 , + , 2 , + , 3 , + , 4 , + ,
e|-3-----------3-------------------|----------------------------------|
B|-5-----------5-----------5-------|------5-----5-----5-----6-----8---|
G|-------------------------5-------|------5-----5-----5-----7-----9---|
D|---------------------------------|----------------------------------|
A|-3-------------------------------|--3-------------------------------|
E|---------------------------------|----------------------------------|


REFRAIN 3

Almost the same es Refrain 2, except for the pickup into the ending
in the last measure (F) of the Refrain and a view variations in
the lead guitar part.

D# F Gm D
D# F Bb D
D# F Gm D
D# F

   D#                F                 Gm                 D
   1 + 2 + 3 + 4 +   1 + 2 + 3 + 4 +   1 + 2 + 3 + 4 +   1 + 2 + 3 + 4 +
e|-3-----3-----3---|-5-----5-----5---|-----------------|-2-----2-----2---|
B|-4-----4-----4---|-6-----6-----6---|-3-----3-----3---|-3-----3-----3---|
G|-3-----3-----3---|-5-----5-----5---|-3-----3-----3---|-2-----2-----2---|
D|-1-----1-----1---|-3-----3-----3---|-0-----0-----0---|-0-----0-----0---|
A|-----------------|-----------------|-----------------|-----------------|
E|(3)---(3)---(3)--|(5)---(5)---(5)--|-3-----3-----3---|-----------------|

  D#                 F                 Bb                D
   1 + 2 + 3 + 4 +   1 + 2 + 3 + 4 +   1 + 2 + 3 + 4 +   1 + 2 + 3 + 4 +
e|-3-----3-----3---|-5-----5-----5---|-----------------|-2-----2-----2---|
B|-4-----4-----4---|-6-----6-----6---|-6-----6-----6---|-3-----3-----3---|
G|-3-----3-----3---|-5-----5-----5---|-7-----7-----7---|-2-----2-----2---|
D|-1-----1-----1---|-3-----3-----3---|-----------------|-0-----0-----0---|
A|-----------------|-----------------|-----------------|-----------------|
E|(3)---(3)---(3)--|(5)---(5)---(5)--|-6-----6-----6---|-----------------|

  D#                 F                 Gm                D
   1 + 2 + 3 + 4 +   1 + 2 + 3 + 4 +   1 + 2 + 3 + 4 +   1 + 2 + 3 + 4 +
e|-3-----3-----3---|-5-----5-----5---|-----------------|-2-----2-----2---|
B|-4-----4-----4---|-6-----6-----6---|-3-----3-----3---|-3-----3-----3---|
G|-3-----3-----3---|-5-----5-----5---|-3-----3-----3---|-2-----2-----2---|
D|-1-----1-----1---|-3-----3-----3---|-0-----0-----0---|-0-----0-----0---|
A|-----------------|-----------------|-----------------|-----------------|
E|(3)---(3)---(3)--|(5)---(5)---(5)--|-3-----3-----3---|-----------------|

  D#                 F
   1 + 2 + 3 + 4 +   1 + 2 + 3 + 4 +
e|-3-----3-----3---|-5-----5---------|
B|-4-----4-----4---|-6-----6---------|
G|-3-----3-----3---|-5-----5-----3/5-|
D|-1-----1-----1---|-3-----3---------|
A|-----------------|-----------------|
E|(3)---(3)---(3)--|(5)---(5)--------|

And here the lead-guitar part for Refrain 3:

Play with Delay

  D#                 F                 Gm                D
   1 + 2 + 3 + 4 +   1 + 2 + 3 + 4 +   1 + 2 + 3 + 4 +   1 + 2 + 3 + 4 +
e|-----------------|-----------------|-----------------|-2-2-2-2-2-2-2-2-|
B|-----------------|-----------------|-----------------|-----------------|
G|-0-0-0-0-0-0-0-0-|-2-2-2-2-2-2-2-2-|-3-3-3-3-3-3-3-3-|(2-2-2-2-2-2-2-2)|
D|-----------------|-----------------|-----------------|-----------------|
A|-----------------|-----------------|-----------------|-----------------|
E|-----------------|-----------------|-----------------|-----------------|

  D#                 F                 Bb               D
   1 + 2 + 3 + 4 +   1 + 2 + 3 + 4 +   1 + 2 + 3 + 4 +   1 + 2 + 3 + 4 +
e|-----------------|-----------------|-----------------|-2-2-2-2-2-2-2-2-|
B|-----------------|-----------------|-3-3-3-3-3-3-3-3-|-----------------|
G|-0-0-0-0-0-0-0-0-|-2-2-2-2-2-2-2-2-|-----------------|-----------------|
D|-----------------|-----------------|-----------------|-----------------|
A|-----------------|-----------------|-----------------|-----------------|
E|-----------------|-----------------|-----------------|-----------------|

  D#                 F                 Gm                D
   1 + 2 + 3 + 4 +   1 + 2 + 3 + 4 +   1 + 2 + 3 + 4 +   1 + 2 + 3 + 4 +
e|-3-3-3-3-3-3-3-3-|-5-5-5-5-5-5-5-5-|-----------------|-----------------|
B|-----------------|-----------------|-----------------|-------1---3---4-|
G|-----------------|-----------------|-3-3-3-3-3-3-3-2-|---3-------------|
D|-----------------|-----------------|-----------------|-----------------|
A|-----------------|-----------------|-----------------|-----------------|
E|-----------------|-----------------|-----------------|-----------------|

  D#                F
   1 + 2 + 3 + 4 +   1 + 2 + 3 + 4 +
e|-----------------|---5-5-5-5-5-5-5-|
B|-----------------|-----------------|
G|-0-0-0-0-0-0-0-0-|-2----------(3/5)|
D|-----------------|-----------------|
A|-----------------|-----------------|
E|-----------------|-----------------|


ENDING

let notes ring

  Gm                Bb                F                 C
   1 + 2 + 3 + 4 +   1 + 2 + 3 + 4 +   1 + 2 + 3 + 4 +   1 + 2 + 3 + 4 +
e|-----------------|-----------------|-------------1---|-3---------------|
B|-----------------|-6---------------|-----------------|-----------------|
G|-2---------------|-------------3/5-|-2---------------|-------------3/5-|
D|---0-------------|-----------------|---0-------------|-----------------|
A|-----------------|-----------------|-----------------|-3-----3---------|
E|-3-----3-----3---|-6-----6---------|-1-----1-----1---|-----------------|

  Gm                Bb                F                 C
   1 + 2 + 3 + 4 +   1 + 2 + 3 + 4 +   1 + 2 + 3 + 4 +   1 + 2 + 3 + 4 +
e|-----------------|-----------------|-------------1---|-3---------------|
B|-----------------|-6---------------|-----------------|-----------------|
G|-2---------------|-------------3/5-|-2---------------|-----------------|
D|---0-------------|-----------------|---0-------------|-----------------|
A|-----------------|-----------------|-----------------|-3---------------|
E|-3-----3-----3---|-6-----6---------|-1-----1-----1---|-----------------|


Intro
Verse 3x
Refrain 1
Post-Refrain
Verse 2x
Refrain 2
Break
Refrain 3
Ending

************************************

| /   slide up
| \   slide down
| h   hammer-on
| p   pull-off
| ~   vibrato
| +   harmonic
| x   Mute note
| b   Bend
| pb  Pre-bend
| br  Bend release
| pbr Pre-bend release
| brb Bend release bend

************************************

            
            
Suggest correction
Creating personal tab
Creating personal tab
You can edit any tab online and save it as your Personal.

You can edit, replace or remove any tab part or add personal notes – all changes will be seen only by you.

Personal tabs can be accessed anytime from any device, even offline.
Learn more »
Give kudos to tab author, rate the tab!
1 2 3 4 5
comments
print report bad tab
2 comments total.
0 reply
SlayerSYD 126 Mar 05, 2011 01:44 AM

The chorus actually has a Bb, not B as you wrote :)
great tab anyways

0 reply
Mucki 165 Mar 06, 2011 01:48 AM

Damn, sorry! Made that mistake because I am from germany and there we wright a B for a Bb and for B we have got an H. Quite confusing somehow... I'll fix it, thanks for the hint!

guest
You may want to rate the tab now too:
select rating
Wanna post a correction for this tab? Suggest correction