Oops, an error
Loading. Please wait.

Live Forever tab

36,659 views 48 this week
2 commentsread comments
1 2 3 4 5
x 34
add to favorites
×
Save as Personal and add changes to this tab that will be seen only by you. Learn more ›
×
You can save this tab as Personal to edit and correct it or add notes. All changes will be seen only by you. Learn more »
launch autoscroll
font size
0
reset
how to read this tab
guitar tuner
edit
Autoscroll
slow
fast
+/-
esc
set tempo
stop
CAPO 4th (Live) or 5th (Album version) FRETS

Chords
   G     Em     C
---3------0-----x---|
---2------2-----3---|
---0------2-----2---|
---0------0-----0---|
---3------3-----3---|
---3------3-----3---|

Intro:
--3-0---3-----3-0---3----|      or      (G Em C G) 2X
------3-----------3------|
-------------------------|
-------------------------|
-------------------------|
-------------------------|

G               Em                 C        G
Laughter is the only thing that'll keep you sane
G             Em             C          G
This world is dyin' more and more every day
G         Em   C       G
Don't let evil get you down
G       Em                 C          G
In this madness, spinning 'round and 'round

CHORUS:
G      Em     C        G
I want you to live forever
G    Em        C      G
Underneath the sky so blue

--3-----0-------3----3-----0-----3--|
----0-2---3------------0-2---3------|
------------0-2----------------0----|
------------------------------------|
------------------------------------|
------------------------------------|

G               Em         C        G
Some people say faith is a childish game
G               Em                 C         G
Well, play on, children, like it's Christmas day.
G         Em    C            G
Sing me a song, sing me a melody
G               Em                 C        G
You can sing out loud, 'cause you're a symphony.

CHORUS 2X

--3-----0-------3----3-----0-------------3---|
----0-2---3------------0-2---------3-2-0-----|
------------0-2--------------0h2-0-----------|
---------------------------------------------|
---------------------------------------------|
---------------------------------------------|


--3-----0-------3----3-----0-----3---|
----0-2---3------------0-2---3-------|
------------0------------------0-----|
--------------2----------------------|
-------------------------------------|
-------------------------------------|

G    Em               C       G
Take courage when the road is long
G             Em               C        G
Don't ever forget that you're never alone


CHORUS 3X


--3-----0-------3----3-----0-----3--|
----0-2---3------------0-2---3------|
------------0-2----------------0----|
------------------------------------|
------------------------------------|
------------------------------------|

G          Em               C     G
People get ready, there's a train comin'
G          Em               C       G
Pickin' up passengers from coast to coast
        G       Em                C       G
All you need is faith to hear the diesel hummin'
    G       Em           C      G
You don't a ticket, just get on board.
     C      G
Just get on board (4X)

CHORUS (3X)

Outro:
G Em C G (Rock it out)

(This is an unbelievable song. His new is CD is scheduled to come out 
FEBRUARY 8TH, 2011)

            
            
Suggest correction
Creating personal tab
Creating personal tab
You can edit any tab online and save it as your Personal.

You can edit, replace or remove any tab part or add personal notes – all changes will be seen only by you.

Personal tabs can be accessed anytime from any device, even offline.
Learn more »
comments
print report bad tab
2 comments total.
+1 reply
Martinbrick 10 Apr 04, 2012 02:38 PM

Thanks mttgil11!
I was playing around with your version and shifted the chords this way and found it may sound more tidy? Just a Suggestion. What do you think?

G! Em! C!
---3------0-----x---|
---2------2-----3---|
---0------2-----2---|
---0------0-----0---|
---3------3-----3---|
---3------3-----3---|

+3 reply
epayne32 10 Feb 23, 2015 08:50 AM

are these tabs upside down or am I losing my mind?

guest
You may want to rate the tab now too:
select rating
Wanna post a correction for this tab? Suggest correction