Oops, an error
Loading. Please wait.

Bedrolls Across America tab

103 views 1 this week
no commentswrite comment
1 2 3 4 5
3 more votes to show rating
add to favorites
×
Save as Personal and add changes to this tab that will be seen only by you. Learn more ›
×
You can save this tab as Personal to edit and correct it or add notes. All changes will be seen only by you. Learn more »
launch autoscroll
font size
0
reset
how to read this tab
guitar tuner
edit
Autoscroll
slow
fast
+/-
esc
set tempo
stop
Author
Difficulty
-------------------------------------------------------------------------------
             Bedrolls Across America - Driftless Pony Club
-------------------------------------------------------------------------------
Tabbed by: jacksonw94
Tuning: Standard

Intro
e|---------------------------------------------------------------------------|
B|---------------------------------------------------------------------------|
G|---------------------------------------------------------------------------|
D|-----6-------6----6---6--4-------------------------------------------------|
A|---7-------7----7----------------------------------------------------------|
E|---------------------------------------------------------------------------|

Instrumental between intro and start of Verse/Verse
     "Show me the Earth"        "Been I don't know if it's"
e|---------------------------------------------------------------------------|
B|---------------------------------------------------------------------------|
G|---------------------------------------------------------------------------|
D|-----6-------6----6---6--4-------6-------6----6---6--4---------------------|
A|---7-------7----7----------------------------------------------------------|
E|-------------------------------5-------5----5------------------------------|
    "End or if it's"            "Over"
e|---------------------------------------------------------------------------|
B|---------------------------------------------------------------------------|
G|---------------------------------------------------------------------------|
D|-----6-------6----6---6--4-------6-------6----6---6--4---------------------|
A|-------------------------------7-------7----7------------------------------|
E|---5-------5----5----------------------------------------------------------|

Before and during "I sleep in a van"
e|---------------------------------------------------------------------------|
B|----9---77--55--------9---77--55--------------------------------5----------|
G|----------------44----------------44--4--4h6p4-------4h6p4-----------------|
D|-------------------------------------------------6----------6-7------------|
A|---------------------------------------------------------------------------|
E|---------------------------------------------------------------------------|

From "Bedrolls across America" until End
e|---7-7--4-4--4-5555----x7--------------------------------------------------|
B|---5-5--5-5--5-5555----x5--------------------------------------------------|
G|---------------------------------------------------------------------------|
D|---------------------------------------------------------------------------|
A|---------------------------------------------------------------------------|
E|---------------------------------------------------------------------------|


************************************

| /   slide up
| \   slide down
| h   hammer-on
| p   pull-off
| ~   vibrato
| +   harmonic
| x   Mute note
| b   Bend
| pb  Pre-bend
| br  Bend release
| pbr Pre-bend release
| brb Bend release bend

************************************

            
            
Suggest correction
Creating personal tab
Creating personal tab
You can edit any tab online and save it as your Personal.

You can edit, replace or remove any tab part or add personal notes – all changes will be seen only by you.

Personal tabs can be accessed anytime from any device, even offline.
Learn more »
Give kudos to tab author, rate the tab!
1 2 3 4 5
comments
print report bad tab
guest
You may want to rate the tab now too:
select rating
Wanna post a correction for this tab? Suggest correction