Oops, an error
Loading. Please wait.

Arterial Black bass

version 1
version 1

Whole song

by Drist
4,056 views 1 this week
7 commentsread comments
1 2 3 4 5
x 13
add to favorites
×
Save as Personal and add changes to this tab that will be seen only by you. Learn more ›
×
You can save this tab as Personal to edit and correct it or add notes. All changes will be seen only by you. Learn more »
launch autoscroll
font size
0
reset
guitar tuner
backing track
0:00
0:00
edit
Autoscroll
slow
fast
+/-
esc
set tempo
stop
----------------------------------------------------------------------------|            
                Arterial Black
----------------------------------------------------------------------------|


My First Tab (I’m so excited I can’t write the tab now.)

By: ME!
Email me with problem/corrections: me___13@hotmail.com
Song album: Orchids and Ammunition


Tune to Drop D (DADG…for those who don’t know.)

Intro time:
G| --------------------------------------|
D| --------------------------------------|
A| --------------------------------------|
D| -0-0-0000-7-7-7777-3-3-3333-8--8--7--7|    x2
             ****        ****        ****

Verse:
G| --------------------------------------------|
D| --------------------------------------------|
A| --------------------------------------------|
D| -0-0---0-0--7-7---7-7--3-3---3-3--8--8--7--7|    x4


Chorus:
G| -----------------------------------|
D| -----------------------------------|
A| -----------------------------------|
D| -3-3-3-3--3-3-3-3--7-7-3-0--8-7-3-0|    x2


Bridge (same as intro):
G| --------------------------------------|
D| --------------------------------------|
A| --------------------------------------|
D| -0-0-0000-7-7-7777-3-3-3333-8--8--7--7|    x2
             ****        ****        ****

Verse:
G| --------------------------------------------|
D| --------------------------------------------|
A| --------------------------------------------|
D| -0-0---0-0--7-7---7-7--3-3---3-3--8--8--7--7|    x4


Chorus:
G| -----------------------------------|
D| -----------------------------------|
A| -----------------------------------|
D| -3-3-3-3--3-3-3-3--7-7-3-0--8-7-3-0|    x4


Bridge #2:
G| ------------------|
D| ------------------|
A| ------------------|
D| -0-0-0-0---0-0-0-0|    x2


Guitar solo intro:
G| ---------------------------|
D| ---------------------------|
A| ---------------------------|
D| -3-3-3--3-3-3--5-5-5--5-5-5|    x4


Guitar solo:
G| ---------------------|
D| ---------------------|
A| ---------------------|
D| -4-4-4--4-4-7-7---2-2|    x4


Guitar solo:
G| --------------------------------------------------|
D| --------------------------------------------------|
A| --------------------------------------------------|
D| -0-0-0---0-0--7-7-7---7-7--3-3-3---3-3--8--8--7--7|    x4


Outro chorus:
G| -----------------------------------|
D| -----------------------------------|
A| -----------------------------------|
D| -3-3-3-3--3-3-3-3--7-7-3-0--8-7-3-0|    x4 (Listen on the third time.
                                               It changes a little at the
                                               start of it.)
Outro:
G| ----------------------|
D| ----------------------|
A| ----------------------|
D| -8-7-3-8-7-3-8-87-73-0|

* = mute (I think they palm mute these slightly but you’ll have to do a little research 
be sure.)

All in order and ready to rock. I didn’t bother righting out all of the sixteenth notes 
as the 0000 in the intro) but I believe it’s 8 notes per set. A little adjustment and 
should have it. Email me with any questions/comments/corrections at the email above. Please Rate!! Thanks.

            
            
Suggest correction
Creating personal tab
Creating personal tab
You can edit any tab online and save it as your Personal.

You can edit, replace or remove any tab part or add personal notes – all changes will be seen only by you.

Personal tabs can be accessed anytime from any device, even offline.
Learn more »
comments
print report bad tab
7 comments total. Showing first comments.
0 reply
ddhockey92 10 Jul 18, 2007 10:02 AM

AMAZING~~~~~~~~~~~~~~~~!!!!!!!!!!!!!1111111111111111

0 reply
music_freeke 73 Sep 10, 2007 06:36 PM

Dude this is really good.... 5 star

0 reply
phasesevenfold 213 Nov 24, 2007 02:49 PM

very nice work, its a good tab and the muting is dead on.

just wish you wouldve put down the the change on the outro
chorus is all. still deserves 5

guest
You may want to rate the tab now too:
select rating
Wanna post a correction for this tab? Suggest correction