Oops, an error
Loading. Please wait.

Arterial Black tab

version 5
by Drist
1,589 views 6 this week
5 commentsread comments
1 2 3 4 5
x 4
add to favorites
×
Save as Personal and add changes to this tab that will be seen only by you. Learn more ›
×
You can save this tab as Personal to edit and correct it or add notes. All changes will be seen only by you. Learn more »
launch autoscroll
font size
0
reset
how to read this tab
guitar tuner
backing track
0:00
0:00
edit
Autoscroll
slow
fast
+/-
esc
set tempo
stop
Author
Difficulty
-------------------------------------------------------------------------------
                       Arterial Black - Drist
-------------------------------------------------------------------------------


Tabbed by:Br3tt
Email: irishfool@myway.com

Tuning: Drop D (DADGBE)

I got tired of reading incorrect tabs...(not saying mine is 100% but its damn near it)
LOOK I EVEN HAVE THE SOLO!!!!
The only reason why i put this tab as advanced is because of the solo


Guitar 1
Intro
E|------------------------------------------------|
B|------------------------------------------------|
G|------------------------------------------------|
D|-0-0-00000000-7-7-77777777-3-3-33333333-88-8-7-7|  x2
A|-0-0-00000000-7-7-77777777-3-3-33333333-88-8-7-7|
D|-0-0-00000000-7-7-77777777-3-3-33333333-88-8-7-7|
       pppppppp     pppppppp     pppppppp

Guitar 2 (over intro second time)
E|------------------------------------|
B|---17~------15~-----12~----12~-11~--|
G|---19b------17b-----14b----14b--9b--|
D|------------------------------------|
A|------------------------------------|
D|------------------------------------|

Guitar 1
Verse
E|----------------------------------------|
B|----------------------------------------|
G|----------------------------------------|
D|-0-0---0-0-7-7---7-7-3-3---3-3-88-8-7-7-|  x4
A|-0-0---0-0-7-7---7-7-3-3---3-3-88-8-7-7-|
D|-0-0---0-0-7-7---7-7-3-3---3-3-88-8-7-7-|


Guitar 2 comes in on the 3rd time, while guitar 1 does verse two more times
E|------------------------------------------|
B|------------------------------------------|
G|------7----------9----------9-------------|
D|----5---7------7---9------7---9-----------|
A|-5----------7----------8---------7---8---7|
D|-----------------------------------8---7--|


Guitar 1
Chorus
E|---------------------|
B|---------------------|
G|---------------------|
D|---8-7-3-0---8-7-3-0-| x2
A|---8-7-3-0---8-7-3-0-|
D|---8-7-3-0---8-7-3-0-|


Guitar 1
Verse
E|----------------------------------------|
B|----------------------------------------|
G|----------------------------------------|
D|-0-0---0-0-7-7---7-7-3-3---3-3-88-8-7-7-|  x2
A|-0-0---0-0-7-7---7-7-3-3---3-3-88-8-7-7-|
D|-0-0---0-0-7-7---7-7-3-3---3-3-88-8-7-7-|


Guitar 2 (over verse second time)
E|------------------------------------|
B|---17~------15~-----12~----12~-11~--|
G|---19b------17b-----14b----14b--9b--|
D|------------------------------------|
A|------------------------------------|
D|------------------------------------|

Guitar 1
Verse
E|----------------------------------------|
B|----------------------------------------|
G|----------------------------------------|
D|-0-0---0-0-7-7---7-7-3-3---3-3-88-8-7-7-|  x4
A|-0-0---0-0-7-7---7-7-3-3---3-3-88-8-7-7-|
D|-0-0---0-0-7-7---7-7-3-3---3-3-88-8-7-7-|


Guitar 2 comes in the 3rd time guitar 1 plays verse two more times
E|-13------------13------------13-----------------------|
B|----16--14--------16--14---------16-----16/19--18-----|
G|-----------17------------17---------------------------|
D|------------------------------------------------------|
A|------------------------------------------------------|
D|------------------------------------------------------|

continued
E|-13------------13------------15-17---15-14h15p14h15p14h15p14p15-|
B|----16--14--------16--14----------------------------------------|
G|-----------17------------17-------------------------------------|
D|----------------------------------------------------------------|
A|----------------------------------------------------------------|
D|----------------------------------------------------------------|

Guitar 1
Chorus
E|--------------------|
B|--------------------|
G|--------------------|
D|---8-7-3-0--8-7-3-0-| x4
A|---8-7-3-0--8-7-3-0-|
D|---8-7-3-0--8-7-3-0-|


~~~~~This Solo has a really fast tempo during th 1st part so what i recomend is starting 
and working your way up to speed~~~~~


Intro to solo~~listen to song~~
E |--------------|
B |--------------|
G |--------------|
D |--------------|
A |--0-----------|
D |--0--17\0-----|

Then we start with the tapping... takes a while to get used to.
E |------------------------------------|
B |------------------------------------|
G |------------------------------------|
D |------------------------------------|
A |------------------------------------|
D |t15-2p0h2h3p0t15-0-t14-2p0h2h3p0t14-|

E |----------------------------------------|
B |----------------------------------------|
G |----------------------------------------|
D |----------------------------------------|
A |----------------------------------------|
D |-0t17-2p0h2h3p0t17-0-t15-2p0h2h3p0t15-0-|


E |---------------------------------------------------------|
B |---------------------------------------------------------|
G |---------------------------------------------------------|
D |---------------------------------------------------------|
A |t15-2p0h2h3p0t15-0-t14-2p0h2h3-0-t14-0t17-2p0h2h3-0t17-0-|
D |---------------------------------------------------------|

E |---------------------------------------------------------|
B |--------------------t18-1p0h1t17-1p0h1t20-1p0h1y18-1p0h1-|
G |---------------------------------------------------------|
D |---------------------------------------------------------|
A |-15-2p0h2h3p0-t15-0--------------------------------------|
D |---------------------------------------------------------|

E |-------------------------------------------------------|
B |t17-1p0h1t18-1p0h1t20-1p0h1t18-1p0h1t17-1p0h1t18-1p0h1-|
G |-------------------------------------------------------|
D |-------------------------------------------------------|
A |-------------------------------------------------------|
D |-------------------------------------------------------|

E |--------------------------------------------------------------------|
B |-t17-1p0h1t15-1p0h1t15-1p0h1t18-1p0h1t20-1p0h1-22b24----------------|
G |-----------------------------------------------------22b24--22b24~--|
D |--------------------------------------------------------------------|
A |--------------------------------------------------------------------|
D |--------------------------------------------------------------------|

This is were it gets a bit easier
E |-14-17-17---14-----------------------------------------------------|
B |----------17---17b19--14-17-17---14---------14-17-17---14----------|
G |------------------------------16---16b18--16---------16---16b18~~--|
D |-------------------------------------------------------------------|
A |-------------------------------------------------------------------|
D |-------------------------------------------------------------------|

E |---------------------------|
B |---------------------------|
G |---------------------------|
D |---------------------------|
A |---------------------------|
D |-2h4------7/8/10/11/13/14--|
             ~~~Slide slow~~~

Im not sure about this part... Sounds close
E |-7h8-10-12-10-8-7-8888~-8h10-12-10-8-7-8888-7777~--|
B |---------------------------------------------------|
G |---------------------------------------------------|
D |---------------------------------------------------|
A |---------------------------------------------------|
D |---------------------------------------------------|

E |-7h8-10-12-10-8-7-8888~-8h10-12-10-8-7-8888-10101010~-|
B |------------------------------------------------------|
G |------------------------------------------------------|
D |------------------------------------------------------|
A |------------------------------------------------------|
D |------------------------------------------------------|

Another Guitar starts with this...
E |-7h8-10-12-10-8-7-8888~-8h10-12-10-8-7-8888-7777~--|
B |---------------------------------------------------|
G |---------------------------------------------------|
D |---------------------------------------------------|
A |---------------------------------------------------|
D |---------------------------------------------------|

E |-7h8-10-12-10-8-7-8888~-8h10-12-10-8-7-8888~--|
B |----------------------------------------------|
G |----------------------------------------------|
D |----------------------------------------------|
A |----------------------------------------------|
D |----------------------------------------------|

E |15p12-------------------|
B |-----15p12--------------|
G |----------14p12---------|
D |---------------14p12~---|
A |------------------------|
D |------------------------|


Guitar 1
Chorus
E|----------------------|
B|----------------------|
G|----------------------|
D|---8-7-3-0--8-7-3-0-0-| x4
A|---8-7-3-0--8-7-3-0-0-|
D|---8-7-3-0--8-7-3-0-0-|

Guitar 1
Outtro
E|-------------------------|
B|-------------------------|
G|-------------------------|
D|---8-7-3-8-7-3-88-77-3-0-|
A|---8-7-3-8-7-3-88-77-3-0-|
D|---8-7-3-8-7-3-88-77-3-0-|

t=tap
p=pulloff
h=hammer on
~=ring out
\=slide
b=bend


===============================================================================

            
            
Suggest correction
Creating personal tab
Creating personal tab
You can edit any tab online and save it as your Personal.

You can edit, replace or remove any tab part or add personal notes – all changes will be seen only by you.

Personal tabs can be accessed anytime from any device, even offline.
Learn more »
comments
print report bad tab
5 comments total. Showing first comments.
0 reply
phasesevenfold 213 Nov 30, 2007 03:27 AM

this isn't too bad, the solo is pretty much dead on its just harder to read when you put so many letters in with
numbers. i posted the only solo for it other than you and i forgot it completely but its in the comments. its good
except the rhythm guitar comes into the last measure of the solo playing on the A string starting at the third fret. its
the amount of frets up, but still its a nice all around tab 4*

0 reply
Br3TT 123 Nov 30, 2007 10:28 AM

Yeah i know... dont get on much.. im going to fix it later today

0 reply
Boxcar Willey 10 Dec 13, 2007 06:50 AM

good tab man... just another great tab.....
you are unstopable man

guest
You may want to rate the tab now too:
select rating
Wanna post a correction for this tab? Suggest correction