Oops, an error
Loading. Please wait.

Darker Than Black bass

version 1
version 1

Whole song

Interactive

257 views 1 this week
no commentswrite comment
1 2 3 4 5
3 more votes to show rating
add to favorites
×
Save as Personal and add changes to this tab that will be seen only by you. Learn more ›
×
You can save this tab as Personal to edit and correct it or add notes. All changes will be seen only by you. Learn more »
launch autoscroll
font size
0
reset
guitar tuner
edit
Autoscroll
slow
fast
+/-
esc
set tempo
stop
Darker Than Black
Drop Dead
Drop Dead
Kwonnie - kwonnie@live.com

Bass Guitar



     W                   W                   E  E  E  E  Q    E  E   
F||-------------------|-------------------|-------------------------|
C||-------------------|-------------------|-------------------------|
G||-------------------|-------------------|-------------------------|
C||-------------------|-------------------|--0--0--0--0-------0--0--|


  E  E  H.              E  E  E  E  Q    E  E     E  E  H.            
---------------------|-------------------------|---------------------|
---------------------|-------------------------|---------------------|
---------------------|-------------------------|---------------------|
--0--0---------------|--0--0--0--0-------0--0--|--0--0---------------|


  E  E  E  E  Q    E  E     E  E  H.              E  E  E  E  Q    E  E   
-------------------------|---------------------|-------------------------|
-------------------------|---------------------|-------------------------|
-------------------------|---------------------|-------------------------|
--5--5--5--5-------5--5--|--5--5---------------|--0--0--0--0-------3--3--|


  E  E  H.              E  E  E  E  Q    E  E     E  E  H.            
---------------------|-------------------------|---------------------|
---------------------|-------------------------|---------------------|
---------------------|-------------------------|---------------------|
--3--3---------------|--0--0--0--0-------0--0--|--0--0---------------|


  E  E  E  E  Q    E  E     E  E  H.              E  E  E  E  Q    E  E   
-------------------------|---------------------|-------------------------|
-------------------------|---------------------|-------------------------|
-------------------------|---------------------|-------------------------|
--0--0--0--0-------0--0--|--0--0---------------|--5--5--5--5-------5--5--|


  E  E  H.              E  E  E  E  Q    E  E     E  E  H.            
---------------------|-------------------------|---------------------|
---------------------|-------------------------|---------------------|
---------------------|-------------------------|---------------------|
--5--5---------------|--0--0--0--0-------3--3--|--3--3---------------|


  E  E  E  E  E  E  E  E     E  E  E  E  E  E  E  E   
--------------------------|--------------------------|
--------------------------|--------------------------|
--------------------------|--------------------------|
--0--0--0--0-----0--0--0--|-----0-----0--0--0-----0--|


  E  E  E  E  E  E  E  E     E  E  E  E  E  E  E  E   
--------------------------|--------------------------|
--------------------------|--------------------------|
--------------------------|--------------------------|
--0--0--0--0-----0--0--0--|-----0-----0--0--0-----0--|


  E  E  E  E  E  E  E  E     E  E  E  E  E  E  E  E   
--------------------------|--------------------------|
--------------------------|--------------------------|
--------------------------|--------------------------|
--0--0--0--0-----0--0--0--|-----0-----0--0--0-----0--|


  E  E  E  E  E  E  E  E     E  E  E  E  E  E  E  E   
--------------------------|--------------------------|
--------------------------|--------------------------|
--------------------------|--------------------------|
--0--0--0--0-----0--0--0--|-----0-----0--0--0-----0--|


  E  E  E  E  E  E  E  E     E  E  E  E  E  E  E  E   
--------------------------|--------------------------|
--------------------------|--------------------------|
--------------------------|--------------------------|
--0--0--0--0-----0--0--0--|-----0-----0--0--0-----0--|


  E  E  E  E  E  E  E  E     E  E  E  E  E  E  E  E   
--------------------------|--------------------------|
--------------------------|--------------------------|
--------------------------|--------------------------|
--0--0--0--0-----0--0--0--|-----0-----0--0--0-----0--|


  E  E  E  E  E  E  E  E     E  E  E  E  E  E  E  E   
--------------------------|--------------------------|
--------------------------|--------------------------|
--------------------------|--------------------------|
--0--0--0--0-----0--0--0--|-----0-----0--0--0-----0--|


  E  E  E  E  E  E  E  E     E  E  E  E  E  E  E  E     W                 
--------------------------|--------------------------|-------------------|
--------------------------|--------------------------|-------------------|
--------------------------|--------------------------|-------------------|
--0--0--0--0-----0--0--0--|-----0-----0--0--0-----0--|--0----------------|


  W                   W                   W                 
-------------------|-------------------|-------------------|
-------------------|-------------------|-------------------|
-------------------|-------------------|-------------------|
--L----------------|--L----------------|--L----------------|


  E  E  E  E  E  E  E  E     E  E  E  E  E  E  E  E   
--------------------------|--------------------------|
--------------------------|--------------------------|
-----------5--------------|--------------------------|
--0--0--0-----0--0--7--0--|--0--3--0--5--3--2--0--2--|


  E  E  E  E  E  E  E  E     E   E  E  E  E  E  E  E   
--------------------------|---------------------------|
--------------------------|---------------------------|
-----------5--------------|---------------------------|
--0--0--0-----0--0--7--0--|--0--10--0--8--7--5--3--5--|


  E  E  E  E  E  E  E  E     E  E  E  E  E  E  E  E   
--------------------------|--------------------------|
--------------------------|--------------------------|
-----------5--------------|--------------------------|
--0--0--0-----0--0--7--0--|--0--3--0--5--3--2--0--2--|


  E  E  E  E  E  E  E  E     E   E  E  E  E  E  E  E   
--------------------------|---------------------------|
--------------------------|---------------------------|
-----------5--------------|---------------------------|
--0--0--0-----0--0--7--0--|--0--10--0--8--7--5--3--5--|


  E  E  E  E  E  E  E  E     E  E  E  E  E  E  E  E   
--------------------------|--------------------------|
--------------------------|--------------------------|
-----------5--------------|--------------------------|
--0--0--0-----0--0--7--0--|--0--3--0--5--3--2--0--2--|


  E  E  E  E  E  E  E  E     E   E  E  E  E  E  E  E   
--------------------------|---------------------------|
--------------------------|---------------------------|
-----------5--------------|---------------------------|
--0--0--0-----0--0--7--0--|--0--10--0--8--7--5--3--5--|


  E  E  E  E  E  E  E  E     E  E  E  E  E  E  E  E   
--------------------------|--------------------------|
--------------------------|--------------------------|
-----------5--------------|--------------------------|
--0--0--0-----0--0--7--0--|--0--3--0--5--3--2--0--2--|


  E  E  E  E  E  E  E  E     E   E  E  E  E  E  E  E     H        E  E  Q     
--------------------------|---------------------------|----------------------|
--------------------------|---------------------------|----------------------|
-----------5--------------|---------------------------|-----------------5----|
--0--0--0-----0--0--7--0--|--0--10--0--8--7--5--3--5--|--3--------3--3-------|


  E  E  Q    E  E  Q       H        E  E  E  E     E  E  E  E  E  E  E  E   
------------------------|-----------------------|--------------------------|
------------------------|-----------------------|--------------------------|
--------7----------3----|-----------------------|--0-----------------------|
--3--3-------3--3-------|--2--------2--2--2--2--|-----5--3--2--5--3--2--0--|


  H        E  E  Q       E  E  Q    E  E  Q       H        E  E  E  E   
----------------------|------------------------|-----------------------|
----------------------|------------------------|-----------------------|
-----------------5----|--------7----------3----|-----------------------|
--3--------3--3-------|--3--3-------3--3-------|--2--------2--2--2--2--|


  E  E  E  E  E  E  E  E     E  E  E  E  E  E  E  E   
--------------------------|--------------------------|
--------------------------|--------------------------|
--0-----------------------|--------------------------|
-----5--3--2--5--3--2--0--|--0--0--0--0--0--0--0--0--|


              |--3--|                                   
  E  E  E  E  E  E  E  Q       E  E  E  E  E  E  E  E   
----------------------------|--------------------------|
----------------------------|--------------------------|
--------------5--3--0--3----|--------------------------|
--0--0--0--0----------------|--0--0--0--0--0--0--0--0--|


              |--3--|                                   
  E  E  E  E  E  E  E  Q       E  E  E  E  E  E  E  E   
----------------------------|--------------------------|
----------------------------|--------------------------|
--------------5--3--0--3----|--------------------------|
--0--0--0--0----------------|--0--0--0--0--0--0--0--0--|


              |--3--|                                   
  E  E  E  E  E  E  E  Q       E  E  E  E  E  E  E  E   
----------------------------|--------------------------|
----------------------------|--------------------------|
--------------5--3--0--3----|--------------------------|
--0--0--0--0----------------|--0--0--0--0--0--0--0--0--|


              |--3--|                                                
  E  E  E  E  E  E  E  Q       W                   W                 
----------------------------|-------------------|-------------------|
----------------------------|-------------------|-------------------|
--------------5--3--0--3----|-------------------|-------------------|
--0--0--0--0----------------|--8----------------|--L----------------|


  W                   W                   E  E  E  E  E  E  E  E   
-------------------|-------------------|--------------------------|
-------------------|-------------------|--------------------------|
-------------------|-------------------|--------------------------|
--3----------------|--L----------------|--0--0--0--0-----0--0--0--|


  E  E  E  E  E  E  E  E     E  E  E  E  E  E  E  E   
--------------------------|--------------------------|
--------------------------|--------------------------|
--------------------------|--------------------------|
-----0-----0--0--0-----0--|--0--0--0--0-----0--0--0--|


  E  E  E  E  E  E  E  E     W                   W                 
--------------------------|-------------------|-------------------|
--------------------------|-------------------|-------------------|
--------------------------|-------------------|-------------------|
-----0-----0--0--0-----0--|--8----------------|--L----------------|


  W                   W                   E  E  E  E  E  E  E  E   
-------------------|-------------------|--------------------------|
-------------------|-------------------|--------------------------|
-------------------|-------------------|--------------------------|
--3----------------|--L----------------|--0--0--0--0-----0--0--0--|


  E  E  E  E  E  E  E  E     E  E  E  E  E  E  E  E   
--------------------------|--------------------------|
--------------------------|--------------------------|
--------------------------|--------------------------|
-----0-----0--0--0-----0--|--0--0--0--0-----0--0--0--|


  E  E  E  E  E  E  E  E     E  E  E  E  Q    E  E     E  E  H.            
--------------------------|-------------------------|---------------------|
--------------------------|-------------------------|---------------------|
--------------------------|-------------------------|---------------------|
-----0-----0--0--0-----0--|--0--0--0--0-------0--0--|--0--0---------------|


  E  E  E  E  Q    E  E     E  E  H.              E  E  E  E  Q    E  E   
-------------------------|---------------------|-------------------------|
-------------------------|---------------------|-------------------------|
-------------------------|---------------------|-------------------------|
--0--0--0--0-------0--0--|--0--0---------------|--5--5--5--5-------5--5--|


  E  E  H.              E  E  E  E  Q    E  E     E  E  H.            
---------------------|-------------------------|---------------------|
---------------------|-------------------------|---------------------|
---------------------|-------------------------|---------------------|
--5--5---------------|--0--0--0--0-------3--3--|--3--3---------------|


  E  E  E  E  Q    E  E     E  E  H.              E  E  E  E  Q    E  E   
-------------------------|---------------------|-------------------------|
-------------------------|---------------------|-------------------------|
-------------------------|---------------------|-------------------------|
--0--0--0--0-------0--0--|--0--0---------------|--0--0--0--0-------0--0--|


  E  E  H.              E  E  E  E  Q    E  E     E  E  H.            
---------------------|-------------------------|---------------------|
---------------------|-------------------------|---------------------|
---------------------|-------------------------|---------------------|
--0--0---------------|--5--5--5--5-------5--5--|--5--5---------------|


  E  E  E  E  Q    E  E     E  E  H.              E  E  E  E  E  E  E  E   
-------------------------|---------------------|--------------------------|
-------------------------|---------------------|--------------------------|
-------------------------|---------------------|-----------5--------------|
--0--0--0--0-------3--3--|--3--3---------------|--0--0--0-----0--0--7--0--|


  E  E  E  E  E  E  E  E     E  E  E  E  E  E  E  E   
--------------------------|--------------------------|
--------------------------|--------------------------|
--------------------------|-----------5--------------|
--0--3--0--5--3--2--0--2--|--0--0--0-----0--0--7--0--|


  E   E  E  E  E  E  E  E     E  E  E  E  E  E  E  E   
---------------------------|--------------------------|
---------------------------|--------------------------|
---------------------------|-----------5--------------|
--0--10--0--8--7--5--3--5--|--0--0--0-----0--0--7--0--|


  E  E  E  E  E  E  E  E     E  E  E  E  E  E  E  E   
--------------------------|--------------------------|
--------------------------|--------------------------|
--------------------------|-----------5--------------|
--0--3--0--5--3--2--0--2--|--0--0--0-----0--0--7--0--|


  E   E  E  E  E  E  E  E     H        E  E  Q       E  E  Q    E  E  Q     
---------------------------|----------------------|------------------------|
---------------------------|----------------------|------------------------|
---------------------------|-----------------5----|--------7----------3----|
--0--10--0--8--7--5--3--5--|--3--------3--3-------|--3--3-------3--3-------|


  H        E  E  E  E     E  E  E  E  E  E  E  E     H        E  E  Q     
-----------------------|--------------------------|----------------------|
-----------------------|--------------------------|----------------------|
-----------------------|--0-----------------------|-----------------5----|
--2--------2--2--2--2--|-----5--3--2--5--3--2--0--|--3--------3--3-------|


  E  E  Q    E  E  Q       H        E  E  E  E     E  E  E  E  E  E  E  E   
------------------------|-----------------------|--------------------------|
------------------------|-----------------------|--------------------------|
--------7----------3----|-----------------------|--0-----------------------|
--3--3-------3--3-------|--2--------2--2--2--2--|-----5--3--2--5--3--2--0--|


                                         |--3--|        
  E  E  E  E  E  E  E  E     E  E  E  E  E  E  E  Q     
--------------------------|----------------------------|
--------------------------|----------------------------|
--------------------------|--------------5--3--0--3----|
--0--0--0--0--0--0--0--0--|--0--0--0--0----------------|


                                         |--3--|        
  E  E  E  E  E  E  E  E     E  E  E  E  E  E  E  Q     
--------------------------|----------------------------|
--------------------------|----------------------------|
--------------------------|--------------5--3--0--3----|
--0--0--0--0--0--0--0--0--|--0--0--0--0----------------|


                                         |--3--|        
  E  E  E  E  E  E  E  E     E  E  E  E  E  E  E  Q     
--------------------------|----------------------------|
--------------------------|----------------------------|
--------------------------|--------------5--3--0--3----|
--0--0--0--0--0--0--0--0--|--0--0--0--0----------------|


                                         |--3--|                            
  E  E  E  E  E  E  E  E     E  E  E  E  E  E  E  Q       W                 
--------------------------|----------------------------|-------------------|
--------------------------|----------------------------|-------------------|
--------------------------|--------------5--3--0--3----|-------------------|
--0--0--0--0--0--0--0--0--|--0--0--0--0----------------|--8----------------|


  W                   W                   W                 
-------------------|-------------------|-------------------|
-------------------|-------------------|-------------------|
-------------------|-------------------|-------------------|
--L----------------|--3----------------|--L----------------|


  E  E  E  E  E  E  E  E     E  E  E  E  E  E  E  E   
--------------------------|--------------------------|
--------------------------|--------------------------|
--------------------------|--------------------------|
--0--0--0--0-----0--0--0--|-----0-----0--0--0-----0--|


  E  E  E  E  E  E  E  E     E  E  E  E  E  E  E  E     W                 
--------------------------|--------------------------|-------------------|
--------------------------|--------------------------|-------------------|
--------------------------|--------------------------|-------------------|
--0--0--0--0-----0--0--0--|-----0-----0--0--0-----0--|--8----------------|


  W                   W                   W                 
-------------------|-------------------|-------------------|
-------------------|-------------------|-------------------|
-------------------|-------------------|-------------------|
--L----------------|--3----------------|--L----------------|


  E  E  E  E  E  E  E  E     E  E  E  E  E  E  E  E   
--------------------------|--------------------------|
--------------------------|--------------------------|
--------------------------|--------------------------|
--0--0--0--0-----0--0--0--|-----0-----0--0--0-----0--|


  E  E  E  E  E  E  E  E     E  E  E  E  E  E  E  E     W                 
--------------------------|--------------------------|-------------------|
--------------------------|--------------------------|-------------------|
--------------------------|--------------------------|-------------------|
--0--0--0--0-----0--0--0--|-----0-----0--0--0-----0--|--8----------------|


  W                   W                   W                 
-------------------|-------------------|-------------------|
-------------------|-------------------|-------------------|
-------------------|-------------------|-------------------|
--L----------------|--3----------------|--L----------------|


  S S S S S S S S E  E  E  E     Q    E  E  E  E  Q     
------------------------------|------------------------|
------------------------------|------------------------|
------------------------------|------------------------|
--0-0-0-0-0-0-0-0-0--0-----0--|-------7--7--7--7-------|


  S S S S S S S S E  E  E  E     Q    E  Q    Q.      
------------------------------|----------------------|
------------------------------|----------------------|
------------------------------|----------------------|
--0-0-0-0-0-0-0-0-0--0-----0--|-------7-------7------|


  S S S S S S S S E  E  E  E     Q    E  E  E  E  Q     
------------------------------|------------------------|
------------------------------|------------------------|
------------------------------|------------------------|
--0-0-0-0-0-0-0-0-0--0-----0--|-------7--7--7--7-------|


  S S S S S S S S E  E  E  E     Q    E  Q    Q.      
------------------------------|----------------------|
------------------------------|----------------------|
------------------------------|----------------------|
--0-0-0-0-0-0-0-0-0--0-----0--|-------7-------7------|


  S S S S S S S S E  E  E  E     Q    E  E  E  E  Q     
------------------------------|------------------------|
------------------------------|------------------------|
------------------------------|------------------------|
--0-0-0-0-0-0-0-0-0--0-----0--|-------7--7--7--7-------|


  S S S S S S S S E  E  E  E     Q    E  Q    Q.      
------------------------------|----------------------|
------------------------------|----------------------|
------------------------------|----------------------|
--0-0-0-0-0-0-0-0-0--0-----0--|-------7-------7------|


  S S S S S S S S E  E  E  E     Q    E  E  E  E  Q     
------------------------------|------------------------|
------------------------------|------------------------|
------------------------------|------------------------|
--0-0-0-0-0-0-0-0-0--0-----0--|-------7--7--7--7-------|


  S S S S S S S S E  E  E  E     Q    H         Q     
------------------------------|----------------------|
------------------------------|----------------------|
------------------------------|----------------------|
--0-0-0-0-0-0-0-0-0--0-----0--|-------8--------10----|


   E   Q     Q     E  E  E     E  Q    Q    E  E  E   
----------------------------|------------------------|
----------------------------|------------------------|
------------10----10--8--8--|--L--8----8----8--------|
--12--12--------------------|------------------8--8--|


   E   Q     Q     E  E  E     E  Q    Q     E   E   E   
----------------------------|---------------------------|
----------------------------|-------------------10--10--|
------------10----10--8--8--|--L--8----8----10----------|
--12--12--------------------|---------------------------|


   E   Q     Q     E  E  E     E  Q    Q    E  E  E   
----------------------------|------------------------|
----------------------------|------------------------|
------------10----10--8--8--|--L--8----8----8--------|
--12--12--------------------|------------------8--8--|


   E   Q     Q     E  E  E     E  Q    Q     E   E   E   
----------------------------|---------------------------|
----------------------------|-------------------10--10--|
------------10----10--8--8--|--L--8----8----10----------|
--12--12--------------------|---------------------------|


   E   Q     Q     E  E  E     E  Q    Q    E  E  E   
----------------------------|------------------------|
----------------------------|------------------------|
------------10----10--8--8--|--L--8----8----8--------|
--12--12--------------------|------------------8--8--|


   E   Q     Q     E  E  E     E  Q    Q     E   E   E   
----------------------------|---------------------------|
----------------------------|-------------------10--10--|
------------10----10--8--8--|--L--8----8----10----------|
--12--12--------------------|---------------------------|


   E   Q     Q     E  E  E     E  Q    Q    E  E  E   
----------------------------|------------------------|
----------------------------|------------------------|
------------10----10--8--8--|--L--8----8----8--------|
--12--12--------------------|------------------8--8--|


   E   Q     Q     E  E  E     E  Q    Q     E   E   E   
----------------------------|---------------------------|
----------------------------|-------------------10--10--|
------------10----10--8--8--|--L--8----8----10----------|
--12--12--------------------|---------------------------|


   E   Q     Q     E  E  E     E  Q    Q    E  E  E   
----------------------------|------------------------|
----------------------------|------------------------|
------------10----10--8--8--|--L--8----8----8--------|
--12--12--------------------|------------------8--8--|


   E   Q     Q     E  E  E     E  Q    Q     E   E   E   
----------------------------|---------------------------|
----------------------------|-------------------10--10--|
------------10----10--8--8--|--L--8----8----10----------|
--12--12--------------------|---------------------------|


   E   Q     Q     E  E  E     E  Q    Q    E  E  E   
----------------------------|------------------------|
----------------------------|------------------------|
------------10----10--8--8--|--L--8----8----8--------|
--12--12--------------------|------------------8--8--|


   E   Q     Q     E  E  E     E  Q    Q     E   E   E   
----------------------------|---------------------------|
----------------------------|-------------------10--10--|
------------10----10--8--8--|--L--8----8----10----------|
--12--12--------------------|---------------------------|


   E   Q     Q     E  E  E     E  Q    Q    E  E  E   
----------------------------|------------------------|
----------------------------|------------------------|
------------10----10--8--8--|--L--8----8----8--------|
--12--12--------------------|------------------8--8--|


   E   Q     Q     E  E  E     E  Q    Q     E   E   E   
----------------------------|---------------------------|
----------------------------|-------------------10--10--|
------------10----10--8--8--|--L--8----8----10----------|
--12--12--------------------|---------------------------|


   E   Q     Q     E  E  E     E  Q    Q    E  E  E   
----------------------------|------------------------|
----------------------------|------------------------|
------------10----10--8--8--|--L--8----8----8--------|
--12--12--------------------|------------------8--8--|


   E   Q     Q     E  E  E     E  Q    Q     E   E   E      W                 
----------------------------|---------------------------|--------------------|
----------------------------|-------------------10--10--|--------------------|
------------10----10--8--8--|--L--8----8----10----------|--------------------|
--12--12--------------------|---------------------------|--12----------------|


  W                   W                   W                 
-------------------|-------------------|-------------------|
-------------------|-------------------|-------------------|
-------------------|-------------------|-------------------|
--L----------------|--L----------------|--L----------------|


  E  E  E  E  Q    E  E     E  E  H.              E  E  E  E  Q    E  E   
-------------------------|---------------------|-------------------------|
-------------------------|---------------------|-------------------------|
-------------------------|---------------------|-------------------------|
--0--0--0--0-------0--0--|--0--0---------------|--0--0--0--0-------0--0--|


  E  E  H.              E  E  E  E  Q    E  E     E  E  H.            
---------------------|-------------------------|---------------------|
---------------------|-------------------------|---------------------|
---------------------|-------------------------|---------------------|
--0--0---------------|--5--5--5--5-------5--5--|--5--5---------------|


  E  E  E  E  Q    E  E     E  E  H.              E  E  E  E  Q    E  E   
-------------------------|---------------------|-------------------------|
-------------------------|---------------------|-------------------------|
-------------------------|---------------------|-------------------------|
--0--0--0--0-------3--3--|--3--3---------------|--0--0--0--0-------0--0--|


  E  E  H.              E  E  E  E  Q    E  E     E  E  H.            
---------------------|-------------------------|---------------------|
---------------------|-------------------------|---------------------|
---------------------|-------------------------|---------------------|
--0--0---------------|--0--0--0--0-------0--0--|--0--0---------------|


  E  E  E  E  Q    E  E     E  E  H.              E  E  E  E  Q    E  E   
-------------------------|---------------------|-------------------------|
-------------------------|---------------------|-------------------------|
-------------------------|---------------------|-------------------------|
--5--5--5--5-------5--5--|--5--5---------------|--0--0--0--0-------3--3--|


  W                  
-------------------||
-------------------||
-------------------||
-------------------||




Duration Legend
---------------
W - whole
H - half
Q - quarter
E - 8th
S - 16th
T - 32nd
X - 64th
. - note dotted
|-n-|  - n-tuplets


Tablature Legend
----------------
L - tied note
x - dead note
g - grace note
(n) - ghost note
> - accentuded note
NH - natural harmonic
AH - artificial harmonic
TH - tapped harmonic
SH - semi harmonic
PH - pitch harmonic
h - hammer on
p - pull off
b - bend
br - bendRelease
pb - preBend
pbr - preBendRelease
brb - bendReleaseBend
\n/ - tremolo bar dip
\n - tremolo bar dive
-/n - tremolo bar Release up
/n\ - tremolo bar inverted dip
/n - tremolo bar return
-\n - tremolo bar Release down
S - shift slide
s - legato slide
/ -  slide into from below or out of upwards
\ -  slide into from above or out of downwards
~ - vibrato
W - wide vibrato
tr - trill
TP - tremolo picking
T - tapping
S - slap
P - pop
< - fade in
^ - brush up
v - brush down

            
            
Suggest correction
Creating personal tab
Creating personal tab
You can edit any tab online and save it as your Personal.

You can edit, replace or remove any tab part or add personal notes – all changes will be seen only by you.

Personal tabs can be accessed anytime from any device, even offline.
Learn more »
Give kudos to tab author, rate the tab!
1 2 3 4 5
comments
print report bad tab
guest
You may want to rate the tab now too:
select rating
Wanna post a correction for this tab? Suggest correction