Oops, an error
Loading. Please wait.

Luxuria bass

version 1
version 1

Whole song

Interactive

46 views 1 this week
no commentswrite comment
1 2 3 4 5
3 more votes to show rating
add to favorites
×
Save as Personal and add changes to this tab that will be seen only by you. Learn more ›
×
You can save this tab as Personal to edit and correct it or add notes. All changes will be seen only by you. Learn more »
launch autoscroll
font size
0
reset
guitar tuner
edit
Autoscroll
slow
fast
+/-
esc
set tempo
stop
Luxuria
Drop Dead
Drop Dead
Kwonnie - kwonnie@live.com

Bass Guitar



     W                   W                   W                 
F||-------------------|-------------------|-------------------|
C||-------------------|-------------------|-------------------|
G||-------------------|-------------------|-------------------|
C||-------------------|-------------------|-------------------|


  W                   W                   W                   W                 
-------------------|-------------------|-------------------|-------------------|
-------------------|-------------------|-------------------|-------------------|
-------------------|-------------------|-------------------|-------------------|
-------------------|-------------------|-------------------|-------------------|


  W                   W                   W                   W                 
-------------------|-------------------|-------------------|-------------------|
-------------------|-------------------|-------------------|-------------------|
-------------------|-------------------|-------------------|-------------------|
-------------------|-------------------|-------------------|-------------------|


  W                   W                   W                   W                 
-------------------|-------------------|-------------------|-------------------|
-------------------|-------------------|-------------------|-------------------|
-------------------|-------------------|-------------------|-------------------|
-------------------|-------------------|-------------------|-------------------|


  W                   W                   H.           Q     
-------------------|-------------------|--------------------|
-------------------|-------------------|--------------------|
-------------------|--5----------------|--3------------0----|
-------------------|-------------------|--------------------|


  W                   W                   W                 
-------------------|-------------------|-------------------|
-------------------|-------------------|-------------------|
--1----------------|--3----------------|--5----------------|
-------------------|-------------------|-------------------|


  H.           Q       W                   W                 
--------------------|-------------------|-------------------|
--------------------|-------------------|-------------------|
--3------------0----|--1----------------|--3----------------|
--------------------|-------------------|-------------------|


  S S S S S S S S S S S S S S S S    S S S S S S S S S S S S S S S S  
----------------------------------|----------------------------------|
----------------------------------|----------------------------------|
--5-5-5-5-5-5-5-5-5-5-5-5-5-5-5-5-|--3-3-3-3-3-3-3-3-3-3-3-3-0-0-0-0-|
----------------------------------|----------------------------------|


  S S S S S S S S S S S S S S S S    S S S S S S S S S S S S S S S S  
----------------------------------|----------------------------------|
----------------------------------|----------------------------------|
--1-1-1-1-1-1-1-1-1-1-1-1-1-1-1-1-|--3-3-3-3-3-3-3-3-3-3-3-3-3-3-3-3-|
----------------------------------|----------------------------------|


  S S S S S S S S S S S S S S S S    S S S S S S S S S S S S S S S S  
----------------------------------|----------------------------------|
----------------------------------|----------------------------------|
--5-5-5-5-5-5-5-5-5-5-5-5-5-5-5-5-|--3-3-3-3-3-3-3-3-3-3-3-3-0-0-0-0-|
----------------------------------|----------------------------------|


  S S S S S S S S S S S S S S S S    S S S S S S S S S S S S S S S S  
----------------------------------|----------------------------------|
----------------------------------|----------------------------------|
--1-1-1-1-1-1-1-1-1-1-1-1-1-1-1-1-|--3-3-3-3-3-3-3-3-3-3-3-3-3-3-3-3-|
----------------------------------|----------------------------------|


  E  T T S T T S E  E  T T S T T S T T S    E  E  S S S  E   S  E  S S E   
-----------------------------------------|--------------------------------|
-----------------------------------------|--------------------------------|
-----------------------------------------|--------------------------------|
--3--0-0-0-0-0-0-3--3--0-0-0-0-0-0-0-0-0-|--0--0--0-0-0-10--10-10--8-8-8--|


  E  T T S T T S E  E  T T S T T S T T S    E  E  S S S E   S  E   S  S  S  S  
-----------------------------------------|------------------------------------|
-----------------------------------------|------------------------------------|
-----------------------------------------|------------------------------------|
--3--0-0-0-0-0-0-3--3--0-0-0-0-0-0-0-0-0-|--7--7--7-7-7-7--10-10--10-10-10-10-|


  E  T T S T T S E  E  T T S T T S T T S    E  E  S S S  E   S  E  S S E   
-----------------------------------------|--------------------------------|
-----------------------------------------|--------------------------------|
-----------------------------------------|--------------------------------|
--3--0-0-0-0-0-0-3--3--0-0-0-0-0-0-0-0-0-|--0--0--0-0-0-10--10-10--8-8-8--|


  E  T T S T T S E  E  T T S T T S T T S    E  E  S S S E   S  E   S  S  S  S  
-----------------------------------------|------------------------------------|
-----------------------------------------|------------------------------------|
-----------------------------------------|------------------------------------|
--3--0-0-0-0-0-0-3--3--0-0-0-0-0-0-0-0-0-|--7--7--7-7-7-7--10-10--10-10-10-10-|


  H.           E   E      T T T T S S S S S  S S  S S S S S S S  
-----------------------|----------------------------------------|
-----------------------|----------------------------------------|
-----------------------|----------8---8-7---10---10-8---7---3-5-|
--0------------L--12\--|--0-0-0-0---0-----0----0------0---0-----|


  S S S S S S S  S S  S S S S S S S    S S S S S S S  S S  S S S S S S S  
------------------------------------|------------------------------------|
----------------10---10-8---7---5-7-|------------------------------------|
------8---8-7-----------------------|------8---8-7---10---10-8---7---3-5-|
--0-0---0-----0----0------0---0-----|--0-0---0-----0----0------0---0-----|


  S S S S S  S S  S S S S S S S S S    T T T T S S S S S  S S  S S S S S S S  
------------------------------------|----------------------------------------|
------7---7-------------------------|----------------------------------------|
------------10---10-8---8-7---3-5-7-|----------8---8-7---10---10-8---7---3-5-|
--0-0---0------0------0-----0-------|--0-0-0-0---0-----0----0------0---0-----|


  S S S S S S S  S S  S S S S S S S    S S S S S S S  S S  S S S S S S S  
------------------------------------|------------------------------------|
----------------10---10-8---7---5-7-|------------------------------------|
------8---8-7-----------------------|------8---8-7---10---10-8---7---3-5-|
--0-0---0-----0----0------0---0-----|--0-0---0-----0----0------0---0-----|


  S S S S S  S S  S S S S S S S S S    S S S S S S E  S S S S S S S S  
------------------------------------|---------------------------------|
------7---7-------------------------|---------------------------------|
------------10---10-8---8-7---3-5-7-|--8-----7-----5------------------|
--0-0---0------0------0-----0-------|----0-0---0-0----0-0-0-0-0-2-3-2-|


   S S S S S S  E  S S S S S S S S     S S S  S S S E  S S S S T T S S S  
-----------------------------------|-------------------------------------|
-----------------------------------|-------------------------------------|
--12-----8-----10------------------|--13-----12-----8----------0-1-0-----|
-----0-0---0-0-----0-0-7-5-3-2-3-5-|-----0-0----0-0----0-0-0-0-------5-3-|


   S S S S S S S S S S S S E  S S    S S S S S S E  S S S S S S S S  
----------------------------------|---------------------------------|
----------------------------------|---------------------------------|
--10-----8-----7-----3-----5------|--8-----7-----5------------------|
-----0-0---0-0---0-0---0-0----0-0-|----0-0---0-0----0-0-0-0-0-2-3-2-|


   S S S S S S  E  S S S S S S S S     S S S  S S S E  S S S S T T S S S  
-----------------------------------|-------------------------------------|
-----------------------------------|-------------------------------------|
--12-----8-----10------------------|--13-----12-----8----------0-1-0-----|
-----0-0---0-0-----0-0-7-5-3-2-3-5-|-----0-0----0-0----0-0-0-0-------5-3-|


   S S S S S S S S S S S S E  S S    E  T T S T T S E  E  T T S T T S T T S  
----------------------------------|-----------------------------------------|
----------------------------------|-----------------------------------------|
--10-----8-----7-----3-----5------|-----------------------------------------|
-----0-0---0-0---0-0---0-0----0-0-|--3--0-0-0-0-0-0-3--3--0-0-0-0-0-0-0-0-0-|


  E  E  S S S  E   S  E  S S E     E  T T S T T S E  E  T T S T T S T T S  
--------------------------------|-----------------------------------------|
--------------------------------|-----------------------------------------|
--------------------------------|-----------------------------------------|
--0--0--0-0-0-10--10-10--8-8-8--|--3--0-0-0-0-0-0-3--3--0-0-0-0-0-0-0-0-0-|


  E  E  S S S E   S  E   S  S  S  S    E  T T S T T S E  E  T T S T T S T T S  
------------------------------------|-----------------------------------------|
------------------------------------|-----------------------------------------|
------------------------------------|-----------------------------------------|
--7--7--7-7-7-7--10-10--10-10-10-10-|--3--0-0-0-0-0-0-3--3--0-0-0-0-0-0-0-0-0-|


  E  E  S S S  E   S  E  S S E     E  T T S T T S E  E  T T S T T S T T S  
--------------------------------|-----------------------------------------|
--------------------------------|-----------------------------------------|
--------------------------------|-----------------------------------------|
--0--0--0-0-0-10--10-10--8-8-8--|--3--0-0-0-0-0-0-3--3--0-0-0-0-0-0-0-0-0-|


  E  E  S S S E   S  E   S  S  S  S  
------------------------------------|
------------------------------------|
------------------------------------|
--7--7--7-7-7-7--10-10--10-10-10-10-|


  E  T T T T T S. E  T T T T T S. E  T T T T  
---------------------------------------------|
---------------------------------------------|
---------------------------------------------|
--3--0-0-0-0-0----0--0-0-0-0-0----0--0-0-0-0-|


  E  T T T T T S. E  T T T T T S. E  T T T T  
---------------------------------------------|
---------------------------------------------|
---------------------------------------------|
--0--0-0-0-0-0----0--0-0-0-0-0----0--0-0-0-0-|


  S S  S S S  S S S  S S S  S S S S S  
--------------------------------------|
--------------------------------------|
----5h-8---5h-8---3h-7---3h-7---3-5-3-|
--0------0------0------0------0-------|


  S S  S S S  S S S   S S S   S S S  S  S  
------------------------------------------|
------------------------------------------|
----5h-8---5h-8---7h-10---7h-10---8-10-12-|
--0------0------0-------0-------0---------|


  S S  S S S  S S S  S S S  S S S S S  
--------------------------------------|
--------------------------------------|
----5h-8---5h-8---3h-7---3h-7---3-5-3-|
--0------0------0------0------0-------|


  S  S  S  S  S S  S S  S S  S S  S  S S  S  
-------------10-7----------------12-10-9----|
-------10---------10-8-------------------12-|
----10----10-----------10-8-----------------|
--8-------------------------10-8------------|


  S S  S S S  S S S  S S S  S S S S S  
--------------------------------------|
--------------------------------------|
----5h-8---5h-8---3h-7---3h-7---3-5-3-|
--0------0------0------0------0-------|


  S S  S S S  S S S   S S S   S S S  S  S  
------------------------------------------|
------------------------------------------|
----5h-8---5h-8---7h-10---7h-10---8-10-12-|
--0------0------0-------0-------0---------|


  S S  S S S  S S S  S S S  S S S S S    S  S  S  S  S S  S S  S S  S S  Q      
--------------------------------------|-------------10-7----------------12\----|
--------------------------------------|-------10---------10-8------------------|
----5h-8---5h-8---3h-7---3h-7---3-5-3-|----10----10-----------10-8-------------|
--0------0------0------0------0-------|--8-------------------------10-8--------|


  S S S S S S E  S S S S S S S S      S S S S S S  E  S S S S S S S S   
----------------------------------|------------------------------------|
----------------------------------|------------------------------------|
--8-----7-----5-------------------|--12-----8-----10-------------------|
----0-0---0-0----0-0-0-0-0-2-3-2/-|-----0-0---0-0-----0-0-7-5-3-2-3-5/-|


   S S S  S S S E  S S S S T  T  S S S      S S S S S S S S S S S S E  S S  
----------------------------------------|----------------------------------|
----------------------------------------|----------------------------------|
--13-----12-----8----------0h-1p-0------|--10-----8-----7-----3-----5------|
-----0-0----0-0----0-0-0-0---------5-3/-|-----0-0---0-0---0-0---0-0----0-0-|


  S S S S S S E  S S S S S S S S      S S S S S S  E  S S S S S S S S   
----------------------------------|------------------------------------|
----------------------------------|------------------------------------|
--8-----7-----5-------------------|--12-----8-----10-------------------|
----0-0---0-0----0-0-0-0-0-2-3-2/-|-----0-0---0-0-----0-0-7-5-3-2-3-5/-|


   S S S  S S S E  S S S S T  T  S S S      S S S S S S S S S S S S E  S S  
----------------------------------------|----------------------------------|
----------------------------------------|----------------------------------|
--13-----12-----8----------0h-1p-0------|--10-----8-----7-----3-----5------|
-----0-0----0-0----0-0-0-0---------5-3/-|-----0-0---0-0---0-0---0-0----0-0-|


  W                   W                   W                   W                 
-------------------|-------------------|-------------------|-------------------|
-------------------|-------------------|-------------------|-------------------|
-------------------|-------------------|-------------------|-------------------|
-------------------|-------------------|-------------------|-------------------|


  E  T T S T T S E  E  T T S T T S T T S    E  E  S S S  E   S  E  S S E   
-----------------------------------------|--------------------------------|
-----------------------------------------|--------------------------------|
-----------------------------------------|--------------------------------|
--3--0-0-0-0-0-0-3--3--0-0-0-0-0-0-0-0-0-|--0--0--0-0-0-10--10-10--8-8-8--|


  E  T T S T T S E  E  T T S T T S T T S    E  E  S S S E   S  E   S  S  S  S  
-----------------------------------------|------------------------------------|
-----------------------------------------|------------------------------------|
-----------------------------------------|------------------------------------|
--3--0-0-0-0-0-0-3--3--0-0-0-0-0-0-0-0-0-|--7--7--7-7-7-7--10-10--10-10-10-10-|


  E  T T S T T S E  E  T T S T T S T T S    E  E  S S S  E   S  E  S S E   
-----------------------------------------|--------------------------------|
-----------------------------------------|--------------------------------|
-----------------------------------------|--------------------------------|
--3--0-0-0-0-0-0-3--3--0-0-0-0-0-0-0-0-0-|--0--0--0-0-0-10--10-10--8-8-8--|


  E  T T S T T S E  E  T T S T T S T T S    E  E  S S S E   S  E   S  S  S  S  
-----------------------------------------|------------------------------------|
-----------------------------------------|------------------------------------|
-----------------------------------------|------------------------------------|
--3--0-0-0-0-0-0-3--3--0-0-0-0-0-0-0-0-0-|--7--7--7-7-7-7--10-10--10-10-10-10-|


  W                   W                   W                   W                 
-------------------|-------------------|-------------------|-------------------|
-------------------|-------------------|-------------------|-------------------|
-------------------|-------------------|-------------------|-------------------|
--0----------------|-------------------|-------------------|-------------------|


  W                   S T T T T S T T T T E.  T T T T S T T T T S T T  
-------------------|--------------------------------------------------|
-------------------|--------------------------------------------------|
-------------------|--------------------------------------------------|
-------------------|----0-0-0-0---0-0-0-0-----0-0-0-0---0-0-0-0---0-0-|


  S T T T T S T T T T E.  T T T T S T T T T S T T  
--------------------------------------------------|
--------------------------------------------------|
--------------------------------------------------|
----0-0-0-0---0-0-0-0-----0-0-0-0---0-0-0-0---0-0-|


  S T T T T S T T T T E.  T T T T S T T T T S T T  
--------------------------------------------------|
--------------------------------------------------|
--------------------------------------------------|
----0-0-0-0---0-0-0-0-----0-0-0-0---0-0-0-0---0-0-|


  S T T T T S T T T T E.  T T T T S T T T T S T T  
--------------------------------------------------|
--------------------------------------------------|
--------------------------------------------------|
----0-0-0-0---0-0-0-0-----0-0-0-0---0-0-0-0---0-0-|


  S T T T T S T T T T E.  T T T T S T T T T S T T  
--------------------------------------------------|
--------------------------------------------------|
--------------------------------------------------|
----0-0-0-0---0-0-0-0-----0-0-0-0---0-0-0-0---0-0-|


  S T T T T S T T T T E.  T T T T S T T T T S T T  
--------------------------------------------------|
--------------------------------------------------|
--------------------------------------------------|
----0-0-0-0---0-0-0-0-----0-0-0-0---0-0-0-0---0-0-|


  S T T T T S T T T T E.  T T T T S T T T T S T T  
--------------------------------------------------|
--------------------------------------------------|
--------------------------------------------------|
----0-0-0-0---0-0-0-0-----0-0-0-0---0-0-0-0---0-0-|


  S T T T T S T T T T E.  T T T T S T T T T S T T  
--------------------------------------------------|
--------------------------------------------------|
--------------------------------------------------|
----0-0-0-0---0-0-0-0-----0-0-0-0---0-0-0-0---0-0-|


  S T T T S T T T Q    T T T S T T T E  S  
------------------------------------------|
------------------------------------------|
------------------------------------------|
----3-3-3-3-3-3-3-3----3-3-3-3-3-3-3-3--3-|


  S T T T S T T T Q    T T T S T T T E  S  
------------------------------------------|
------------------------------------------|
------------------------------------------|
--L-3-3-3-3-3-3-3-3----3-3-3-3-3-3-3-3--3-|


  S T T T S T T T Q    T T T S T T T E  S  
------------------------------------------|
------------------------------------------|
------------------------------------------|
--L-2-2-2-2-2-2-2-2----2-2-2-2-2-2-2-2--2-|


  S T T T S T T T Q    T T T S T T T E.   
-----------------------------------------|
-----------------------------------------|
-----------------------------------------|
--L-0-0-0-0-0-0-0-0----0-0-0-0-0-0-0-0---|


  S T T T S T T T Q    T T T S T T T E  S  
------------------------------------------|
------------------------------------------|
------------------------------------------|
----3-3-3-3-3-3-3-3----3-3-3-3-3-3-3-3--3-|


  S T T T S T T T Q    T T T S T T T E  S  
------------------------------------------|
------------------------------------------|
------------------------------------------|
--L-3-3-3-3-3-3-3-3----3-3-3-3-3-3-3-3--3-|


  S T T T S T T T Q    T T T S T T T E  S  
------------------------------------------|
------------------------------------------|
------------------------------------------|
--L-2-2-2-2-2-2-2-2----2-2-2-2-2-2-2-2--2-|


  S T T T S T T T Q    T T T S T T T E.   
-----------------------------------------|
-----------------------------------------|
-----------------------------------------|
--L-0-0-0-0-0-0-0-0----0-0-0-0-0-0-0-0---|


  T T T T T T T T S S S S S S T T T T S S S S  
----------------------------------------------|
----------------------------------------------|
----------------------------------------------|
--0-0-0-0-0-0-0-0-0-0-0-0---0-0-0-0-0-0-0-0---|


  T T T T T T T T S S S S S S T T T T S S S S  
----------------------------------------------|
----------------------------------------------|
----------------------------------------------|
--0-0-0-0-0-0-0-0-0-0-0-0---0-0-0-0-0-0-0-0---|


  T T T T T T T T S S S S S S T T T T S S S S  
----------------------------------------------|
----------------------------------------------|
----------------------------------------------|
--0-0-0-0-0-0-0-0-0-0-0-0---0-0-0-0-0-0-0-0---|


  T T T T T T T T S S S S S S T T T T S S S S  
----------------------------------------------|
----------------------------------------------|
----------------------------------------------|
--0-0-0-0-0-0-0-0-0-0-0-0---0-0-0-0-0-0-0-0---|


  T T T T T T T T S S S S S S T T T T S S S S  
----------------------------------------------|
----------------------------------------------|
----------------------------------------------|
--0-0-0-0-0-0-0-0-0-0-0-0---0-0-0-0-0-0-0-0---|


  T T T T T T T T S S S S S S T T T T S S S S  
----------------------------------------------|
----------------------------------------------|
----------------------------------------------|
--0-0-0-0-0-0-0-0-0-0-0-0---0-0-0-0-0-0-0-0---|


  T T T T T T T T S S S S S S T T T T S S S S  
----------------------------------------------|
----------------------------------------------|
----------------------------------------------|
--0-0-0-0-0-0-0-0-0-0-0-0---0-0-0-0-0-0-0-0---|


  T T T T T T T T S S S S S S T T T T S S S S    W                 
----------------------------------------------|-------------------|
----------------------------------------------|-------------------|
----------------------------------------------|-------------------|
--0-0-0-0-0-0-0-0-0-0-0-0---0-0-0-0-0-0-0-0---|--0----------------|


  W                   W                   W                   W                 
-------------------|-------------------|-------------------|-------------------|
-------------------|-------------------|-------------------|-------------------|
-------------------|-------------------|-------------------|-------------------|
--L----------------|--L----------------|--L----------------|-------------------|


  W                   W                   W                   W                 
-------------------|-------------------|-------------------|-------------------|
-------------------|-------------------|-------------------|-------------------|
-------------------|-------------------|-------------------|-------------------|
-------------------|-------------------|-------------------|-------------------|


  W                   W                   W                 
-------------------|-------------------|-------------------|
-------------------|-------------------|-------------------|
-------------------|-------------------|-------------------|
-------------------|-------------------|-------------------|


  W                  
-------------------||
-------------------||
-------------------||
-------------------||




Duration Legend
---------------
W - whole
H - half
Q - quarter
E - 8th
S - 16th
T - 32nd
X - 64th
. - note dotted
|-n-|  - n-tuplets


Tablature Legend
----------------
L - tied note
x - dead note
g - grace note
(n) - ghost note
> - accentuded note
NH - natural harmonic
AH - artificial harmonic
TH - tapped harmonic
SH - semi harmonic
PH - pitch harmonic
h - hammer on
p - pull off
b - bend
br - bendRelease
pb - preBend
pbr - preBendRelease
brb - bendReleaseBend
\n/ - tremolo bar dip
\n - tremolo bar dive
-/n - tremolo bar Release up
/n\ - tremolo bar inverted dip
/n - tremolo bar return
-\n - tremolo bar Release down
S - shift slide
s - legato slide
/ -  slide into from below or out of upwards
\ -  slide into from above or out of downwards
~ - vibrato
W - wide vibrato
tr - trill
TP - tremolo picking
T - tapping
S - slap
P - pop
< - fade in
^ - brush up
v - brush down

            
            
Suggest correction
Creating personal tab
Creating personal tab
You can edit any tab online and save it as your Personal.

You can edit, replace or remove any tab part or add personal notes – all changes will be seen only by you.

Personal tabs can be accessed anytime from any device, even offline.
Learn more »
Give kudos to tab author, rate the tab!
1 2 3 4 5
comments
print report bad tab
guest
You may want to rate the tab now too:
select rating
Wanna post a correction for this tab? Suggest correction