Oops, an error
Loading. Please wait.

Dressed For Friend Requests tab

version 3
version 3

Whole song

Interactive

1,209 views 1 this week
1 commentread comment
1 2 3 4 5
2 more votes to show rating
add to favorites
×
Save as Personal and add changes to this tab that will be seen only by you. Learn more ›
×
You can save this tab as Personal to edit and correct it or add notes. All changes will be seen only by you. Learn more »
launch autoscroll
font size
0
reset
how to read this tab
guitar tuner
edit
Autoscroll
slow
fast
+/-
esc
set tempo
stop
Author
Difficulty
Dressed For Friend Requests
Drop Dead, Gorgeous

I made this into "standard" tuning because
once you convert it on the piano
you can just read it more easily from "Drop C" tuning

I tried to make this for a combo of both hands on the piano
but in time, I'll like convert it like, Gtr 1= left hand
and Gtr 2= right hand... something like that.

E|---1-6----1-6---6-10-10---8---8-6---|
B|-3------3-----3---------3---1-------|
G|----------------------------2-----3-|
D|----------------------------------5-|
A|-0--------------------------0-----0-|
E|------------------------------------|

E|-5--------0-1-----13-----12—-0—-8-----|
B|----3—-3--------------------------1---|
G|-2------------------------------------|
D|-3—-0------------------------3--------|
A|--------------------------------------|
E|-0-----0------0-0----0-0-----0----0—0-|

E|-1—-1----1—-1—-3—-5-----5-----3-----1----|
B|-1----------------------------1-----1----|
G|------------------------2----------------|
D|-3---------------------------------------|
A|-----------------------------------------|
E|-3—-3—-3----3—-3—-3—-3—-3—-3—-3--3--3--3-|

E|-0-----0--1-----1--3-----3--5-----5--3--1-|
B|------------------------------------------|
G|----2--2-----2--2-----2--2-----2--2--2--2-|
D|------------------------------------------|
A|-2--------2--------2--------2--------2--2-|
E|------------------------------------------|

E|-3-------3--6-------6------5-------1---|
B|--------------------8------6-------3---|
G|-0--0----------0----0------------------|
D|---------------------------3-----------|
A|-0--0-0--0--0--0-0-----0-0----0-0----0-|
E|-----------------------------------0---|

E|-1---------1------13------12------8-|
B|-3-------3--------------------------|
G|------------------------------------|
D|------------------------------------|
A|----0-0-------0-0-------------------|
E|-0--0-0-------0-0----0-0-----0-0----|




E|-5--------1------5------6-------5------1-----|
B|---------------------------------------------|
G|---2---------------2------2-------2------2---|
D|-----------------------------------------3---|
A|---------------------------------------------|
E|---3--3-3----3-3-----3------3-3-----3-3----3-|

E|-1--5-8-5-8-12-5-|
B|-----------------|
G|-2---------------|
D|-3---------------|
A|-2---------------|
E|-----------------|


            
            
Suggest correction
Creating personal tab
Creating personal tab
You can edit any tab online and save it as your Personal.

You can edit, replace or remove any tab part or add personal notes – all changes will be seen only by you.

Personal tabs can be accessed anytime from any device, even offline.
Learn more »
Give kudos to tab author, rate the tab!
1 2 3 4 5
comments
print report bad tab
1 comment total.
0 reply
4coustiks 108 Feb 05, 2009 08:42 AM

uh?

guest
You may want to rate the tab now too:
select rating
Wanna post a correction for this tab? Suggest correction