Oops, an error
Loading. Please wait.
We have an official Im Shipping Up To Boston tab made by UG professional guitarists. Check out the tab »
×
14,646 views 3 this week
2 commentsread comments
1 2 3 4 5
3 more votes to show rating
add to favorites
×
Save as Personal and add changes to this tab that will be seen only by you. Learn more ›
×
You can save this tab as Personal to edit and correct it or add notes. All changes will be seen only by you. Learn more »
launch autoscroll
font size
0
reset
how to read this tab
guitar tuner
backing track
0:00
0:00
edit
Autoscroll
slow
fast
+/-
esc
set tempo
stop
Author
Difficulty
Hi Guys,
This is the Tab for "I'm Shipping Up To Boston",
its just a question of timing and practasing.
Have fun.

Gez: The guitarist of "The Gons"!!
Wambo


Intro

e|---------------------------|             
H|---------------------------|             
G|-9--7-9--7-9-11-12-11-9-7--|             
D|---------------------------|            
A|---------------------------|             
E|---------------------------|             
                                           

e|-----------------------------|           
H|-12-10----10-----------------|          
G|-------12----12-11-12-11-7-9-|           
D|-----------------------------|          
A|-----------------------------|           
E|-----------------------------|           
                                           


Riff 1  (Play it 3x)

e|---------------------------|                
H|---------------------------|                
G|-9--7-9--7-9-11-12-11-9-7--|                
D|---------------------------|                
A|---------------------------|                
E|---------------------------|                
                                              
   
e|---------------------------|
H|-------------------12------|
G|-9--7-9--7-9-11-12---------|
D|---------------------------|
A|---------------------------|
E|---------------------------|


e|---------------------------|
H|---------------------------|
G|-9--7-9--7-9-11-12-11-9-7--|
D|---------------------------|
A|---------------------------|
E|---------------------------|


e|-----------------------------|
H|-12-10----10-----------------|
G|-------12----12-11-12-11-7-9-|
D|-----------------------------|
A|-----------------------------|
E|-----------------------------|


Riff 2 (Play it 2x)


e|---------------------------------|
H|-12--10-12--10-12-14-15-14-12-10-|
G|---------------------------------|
D|---------------------------------|
A|---------------------------------|
E|---------------------------------|


e|------------------------15-------|
H|-12--10-12--10-12-14-15----------|
G|---------------------------------|
D|---------------------------------|
A|---------------------------------|
E|---------------------------------|


e|---------------------------------|
H|-12--10-12--10-12-14-15-14-12-10-|
G|---------------------------------|
D|---------------------------------|
A|---------------------------------|
E|---------------------------------|

e|-14--12----12--------------------|
H|--------15----15-14-15-14-10-12--|
G|---------------------------------|
D|---------------------------------|
A|---------------------------------|
E|---------------------------------|





Riff 1  (Play it 2x)

e|---------------------------|                
H|---------------------------|                
G|-9--7-9--7-9-11-12-11-9-7--|                
D|---------------------------|                
A|---------------------------|                
E|---------------------------|                
                                              
   
e|---------------------------|
H|-------------------12------|
G|-9--7-9--7-9-11-12---------|
D|---------------------------|
A|---------------------------|
E|---------------------------|


e|---------------------------|
H|---------------------------|
G|-9--7-9--7-9-11-12-11-9-7--|
D|---------------------------|
A|---------------------------|
E|---------------------------|


e|-----------------------------|
H|-12-10----10-----------------|
G|-------12----12-11-12-11-7-9-|
D|-----------------------------|
A|-----------------------------|
E|-----------------------------|


Riff 2 (Play it 2x)


e|---------------------------------|
H|-12--10-12--10-12-14-15-14-12-10-|
G|---------------------------------|
D|---------------------------------|
A|---------------------------------|
E|---------------------------------|


e|------------------------15-------|
H|-12--10-12--10-12-14-15----------|
G|---------------------------------|
D|---------------------------------|
A|---------------------------------|
E|---------------------------------|


e|---------------------------------|
H|-12--10-12--10-12-14-15-14-12-10-|
G|---------------------------------|
D|---------------------------------|
A|---------------------------------|
E|---------------------------------|

e|-14--12----12--------------------|
H|--------15----15-14-15-14-10-12--|
G|---------------------------------|
D|---------------------------------|
A|---------------------------------|
E|---------------------------------|



Riff 3 (Play it 4x)


e|---------------------------------|
H|---------------------------------|
G|---------------5-----------------|
D|---2-----------5----5------------|
A|---2-----------3----5------------|
E|---0----------------3------------|



Riff 1  (Play it 2x)

e|---------------------------|                
H|---------------------------|                
G|-9--7-9--7-9-11-12-11-9-7--|                
D|---------------------------|                
A|---------------------------|                
E|---------------------------|                
                                              
   
e|---------------------------|
H|-------------------12------|
G|-9--7-9--7-9-11-12---------|
D|---------------------------|
A|---------------------------|
E|---------------------------|


e|---------------------------|
H|---------------------------|
G|-9--7-9--7-9-11-12-11-9-7--|
D|---------------------------|
A|---------------------------|
E|---------------------------|


e|-----------------------------|
H|-12-10----10-----------------|
G|-------12----12-11-12-11-7-9-|
D|-----------------------------|
A|-----------------------------|
E|-----------------------------|


Riff 2 (Play it 2x)


e|---------------------------------|
H|-12--10-12--10-12-14-15-14-12-10-|
G|---------------------------------|
D|---------------------------------|
A|---------------------------------|
E|---------------------------------|


e|------------------------15-------|
H|-12--10-12--10-12-14-15----------|
G|---------------------------------|
D|---------------------------------|
A|---------------------------------|
E|---------------------------------|


e|---------------------------------|
H|-12--10-12--10-12-14-15-14-12-10-|
G|---------------------------------|
D|---------------------------------|
A|---------------------------------|
E|---------------------------------|

e|-14--12----12--------------------|
H|--------15----15-14-15-14-10-12--|
G|---------------------------------|
D|---------------------------------|
A|---------------------------------|
E|---------------------------------|



Riff 3 (Play it 4x)


e|---------------------------------|
H|---------------------------------|
G|---------------5-----------------|
D|---2-----------5----5------------|
A|---2-----------3----5------------|
E|---0----------------3------------|




Last Riff (1x)


e|---------------------------|                
H|---------------------------|                
G|-9--7-9--7-9-11-12-11-9-7--|                
D|---------------------------|                
A|---------------------------|                
E|---------------------------|                
                                              
   
e|---------------------------|
H|-------------------12------|
G|-9--7-9--7-9-11-12---------|
D|---------------------------|
A|---------------------------|
E|---------------------------|


e|---------------------------|
H|---------------------------|
G|-9--7-9--7-9-11-12-11-9-7--|
D|---------------------------|
A|---------------------------|
E|---------------------------|


e|-----------------------------------------|
H|-12-10----10-----------------------------|
G|-------12------12---11---12---11---7---9-|
D|-----------------------------------------|
A|-----------------------------------------|
E|-----------------------------------------|

            
            
Suggest correction
Creating personal tab
Creating personal tab
You can edit any tab online and save it as your Personal.

You can edit, replace or remove any tab part or add personal notes – all changes will be seen only by you.

Personal tabs can be accessed anytime from any device, even offline.
Learn more »
Give kudos to tab author, rate the tab!
1 2 3 4 5
comments
print report bad tab
2 comments total.
0 reply
BucketheadRules 279 Jul 10, 2009 04:24 AM

How do I tune the B string to H? I didn't know that was a note.

0 reply
FrenchyFungus 520 Jul 10, 2009 04:29 AM

H = B.

It's an old German thing they use the name "B" for what we call "B flat", and call what we call "B" by the name "H": http://www.dolmetsch.com/musictheory1.htm

guest
You may want to rate the tab now too:
select rating
Wanna post a correction for this tab? Suggest correction