Oops, an error
Loading. Please wait.

Johnny I Hardly Knew Ya bass

version 1
version 1

Whole song

Interactive

9,921 views 9 this week
1 commentread comment
1 2 3 4 5
x 6
add to favorites
×
Save as Personal and add changes to this tab that will be seen only by you. Learn more ›
×
You can save this tab as Personal to edit and correct it or add notes. All changes will be seen only by you. Learn more »
launch autoscroll
font size
0
reset
guitar tuner
backing track
0:00
0:00
edit
Autoscroll
slow
fast
+/-
esc
set tempo
stop
Difficulty
Not sure if this is right? But this is basicly the same as 'the pirate song' my band 
Its all based off the animals went in two by two, or if you have an old casio keybord its 
song Jonny if you want all the chords.

We play this, so its basicly around these notes:

--------------------------|--------------2-44-44-0-4~~|
-2~2222-45-45-2-00-00--2~~|-2-2222-45-45--------------|
2---------------------2---|2--------------------------|
--------------------------|---------------------------|

2-4-4444-0-2-2222--------------|024-022------------------------|
-----------------4-5-5555-2-4~~|--------045-044-002-2222-0-2~2~|
-------------------------------|-------------------------------|
-------------------------------|-------------------------------|

Intro is sumet like

-------------------------|--------------2-4~~-0-4~~-|
2-222-45~~45~~2-0~~--0~~-|2-222-45~~45~~------------|
-------------------2-----|--------------------------|
-------------------------|--------------------------|

-2-4~442-0-2~220--------------|4~~~2~~~---------------------|
-----------------4-5~555424~~~|--------5~~~4~~~2-2222-0-2~2~|
------------------------------|-----------------------------|
------------------------------|-----------------------------|

Hope you can work around this, it should be basicly right, all the notes are there.
Jay - despot_of_mid_nor@hotmail.com

            
            
Suggest correction
Creating personal tab
Creating personal tab
You can edit any tab online and save it as your Personal.

You can edit, replace or remove any tab part or add personal notes – all changes will be seen only by you.

Personal tabs can be accessed anytime from any device, even offline.
Learn more »
comments
print report bad tab
1 comment total.
0 reply
DRAGONSFIRE123 50 May 03, 2013 12:06 PM

This is spot on!

guest
Wanna post a correction for this tab? Suggest correction