Oops, an error
Loading. Please wait.

Kiss Me Im Shitfaced tab

version 2
version 2

Whole song

Interactive

12,351 views 1 this week
2 commentsread comments
1 2 3 4 5
2 more votes to show rating
add to favorites
×
Save as Personal and add changes to this tab that will be seen only by you. Learn more ›
×
You can save this tab as Personal to edit and correct it or add notes. All changes will be seen only by you. Learn more »
launch autoscroll
font size
0
reset
how to read this tab
guitar tuner
edit
Autoscroll
slow
fast
+/-
esc
set tempo
stop
Author
-------------------------------------------------------------------------------
                            KISS ME I'M SHITFACED - Dropkick Murphys
-------------------------------------------------------------------------------
Tabbed by:Pakistanieagle77


Tuning: Full Step Down (DGCFAd)

Intro Electric and Acoustic

e|------------------------------------------------------------------------------------|
B|-----3h5-3-1---1-----1--------------------------------------------------------------|
G|-----0-0--0-0---0h2-0---------------------------------------------------------------|
D|-----------------------------2------------------------------------------------------|
A|---------------------------------3--------------------------------------------------|
E|------------------------------------------------------------------------------------|

or a simplified version in DGCFAd
e|----------------------------------------------------------------------------------|
B|------3h5-3-1---------------------------------------------------------------------|
G|------------------0h2-0-----------------------------------------------------------|
D|----------------------------2-----------------------------------------------------|
A|--------------------------------3-------------------------------------------------|
E|----------------------------------------------------------------------------------|

In standard
e|----------------------------------------------------------------------------------|
B|----------------------------------------------------------------------------------|
G|----5h7-5--3----------------------------------------------------------------------|
D|------------------3h5-3-0---------------------------------------------------------|
A|-------------------------------1--------------------------------------------------|
E|----------------------------------------------------------------------------------|

Thats all, if you're playing it in DGCFAd play the song in the key of C using C, F, and 
chords mostly and Em for the end of the verses and if playing in standard check the 
version 2


| /  slide up
| \  slide down
| h  hammer-on
| p  pull-off
| ~  vibrato
| +  harmonic
| x  Mute note
===============================================================================

            
            
Suggest correction
Creating personal tab
Creating personal tab
You can edit any tab online and save it as your Personal.

You can edit, replace or remove any tab part or add personal notes – all changes will be seen only by you.

Personal tabs can be accessed anytime from any device, even offline.
Learn more »
Give kudos to tab author, rate the tab!
1 2 3 4 5
comments
print report bad tab
2 comments total.
0 reply
Zoso68 272 Oct 16, 2008 11:03 AM

-------------------------------------------------------------------------------
KISS ME I'M SHITFACED - Dropkick Murphys
-------------------------------------------------------------------------------
Tabbed by:Pakistanieagle77


Tuning: Standard Capo III
Intro Electric and Acoustic

Use open D C and G chord shapes

D C G
e|-------------------------------------3------------------------|
B|-----3----3-3---------------------3-------------------------|
G|-----2h4-2-0--0---0------------0--------------------------|
D|-----0----0-0--0h20---0--0---0---------------------------|
A|-----------------3---3---0h2---2---------------------------|
E|---------------------------------3------------------------------|

G
I play in a band
C G
We're the best in the land
D
We're big in both Chelsea and France
C G
I play one mean guitar and then score at the bar
C G D
There's a line of chicks waiting for their chance
G C G
So come on now honey, I'll make you feel pretty
D
These other gals mean nothing to me
C G
Let's finish these drinks and be gone for the night
C G Em
'Cause I'm more than a handfull you'll see

[Chorus:]
C G
So kiss me, I'm shitfaced
(C) G D C
and i'm soaked and i'm soiled and brown in the trousers,
G
She kissed me!
D C G
And I only bought her one round

0 reply
joepolygraph 43 Feb 01, 2017 06:57 PM

If you're going to be plying with the pipes, YOU HAVE TO CAPO at III. This guy knows what he is talking about. Its a long explanation and goes into how a bagpipe, is NEVER truly in tune. But not using that capo, will through that bagpipe player off, and the song is ruined.

guest
You may want to rate the tab now too:
select rating
Wanna post a correction for this tab? Suggest correction