Oops, an error
Loading. Please wait.

Rebels With A Cause tab

52 views 1 this week
no commentswrite comment
1 2 3 4 5
3 more votes to show rating
add to favorites
×
Save as Personal and add changes to this tab that will be seen only by you. Learn more ›
×
You can save this tab as Personal to edit and correct it or add notes. All changes will be seen only by you. Learn more »
launch autoscroll
font size
0
reset
how to read this tab
guitar tuner
edit
Autoscroll
slow
fast
+/-
esc
set tempo
stop
Author
Difficulty
[Intro]
e|-----------------|----------2------|-----------------|----------2------|
B|-3---3---3---3---|-3-3-3--3-3------|-3---3---3---3---|-3-3-3--3-3------|
G|-----------------|----------2------|-----------------|----------2------|
D|-----------------|----------0------|-----------------|----------0------|
A|-----3-------3---|---3----3--------|-----3-------3---|---3----3--------|
E|-3-------3-------|-3---3-----------|-3-------3-------|-3---3-----------|

e|-----------------|-2---2---2-------|-----------------|-2---2---2-------|
B|-3---3---3---3-3-|-3---3---3---3-3-|-3---3---3---3-3-|-3---3---3---3-3-|
G|-----------------|-2---2---2-------|-----------------|-2---2---2-------|
D|-----------------|-0---0---0-------|-----------------|-0---0---0-------|
A|-------------3---|-------------3---|-------------3---|-------------3---|
E|-3---3---3-----3-|---------------3-|-3---3---3-----3-|---------------3-|

[Verse]
  p.m.............. ................. ................. .................
e|-----------------|-----------------|-2-2-2-2-2-2-2-2-|-2-2-2-2---------|
B|-3-3-3-3-3-3-3-3-|-3-3-3-3-3-3-3-3-|-3-3-3-3-3-3-3-3-|-3-3-3-3-3-3-3-3-|
G|-----------------|-----------------|-2-2-2-2-2-2-2-2-|-2-2-2-2---------|
D|-----------------|-----------------|-0-0-0-0-0-0-0-0-|-0-0-0-0---------|
A|-----------------|-----------------|-----------------|-----------------|
E|-3-3-3-3-3-3-3-3-|-3-3-3-3-3-3-3-3-|-----------------|---------3-3-3-3-|

  p.m.............. ................. ................. .................
e|-----------------|-----------------|-2-2-2-2-2-2-2-2-|-2-2-2-2---------|
B|-3-3-3-3-3-3-3-3-|-3-3-3-3-3-3-3-3-|-3-3-3-3-3-3-3-3-|-3-3-3-3-3-3-3-3-|
G|-----------------|-----------------|-2-2-2-2-2-2-2-2-|-2-2-2-2---------|
D|-----------------|-----------------|-0-0-0-0-0-0-0-0-|-0-0-0-0---------|
A|-----------------|-----------------|-----------------|-----------------|
E|-3-3-3-3-3-3-3-3-|-3-3-3-3-3-3-3-3-|-----------------|---------3-3-3-3-|

[Pre-Chorus] 
(Guitar 2 just strums the first chord of every change)
  p.m.............. ................. ................. .................
e|-2-2-2-2-2-2-2-2-|-2-2-2-2---------|-----------------|---------2-2-2-2-|
B|-3-3-3-3-3-3-3-3-|-3-3-3-3-3-3-3-3-|-3-3-3-3-3-3-3-3-|-3-3-3-3-3-3-3-3-|
G|-2-2-2-2-2-2-2-2-|-2-2-2-2---------|-----------------|---------2-2-2-2-|
D|-0-0-0-0-0-0-0-0-|-0-0-0-0---------|-----------------|---------0-0-0-0-|
A|-----------------|-----------------|-3-3-3-3-3-3-3-3-|-3-3-3-3---------|
E|-----------------|---------3-3-3-3-|-----------------|-----------------|

  p.m.............. ................. ................. .................
e|-----------------|-----------------|-2-2-2-2-2-2-2-2-|-2-2-2-2---------|
B|-3-3-3-3-3-3-3-3-|-3-3-3-3-3-3-3-3-|-3-3-3-3-3-3-3-3-|-3-3-3-3-3-3-3-3-|
G|-----------------|-----------------|-2-2-2-2-2-2-2-2-|-2-2-2-2---------|
D|-----------------|-----------------|-0-0-0-0-0-0-0-0-|-0-0-0-0---------|
A|-----------------|-----------------|-----------------|-----------------|
E|-3-3-3-3-3-3-3-3-|-3-3-3-3-3-3-3-3-|-----------------|---------3-3-3-3-|

e|-2---------------|-----------------|
B|-3---------------|-----------------|
G|-2---------------|-----------------|
D|-0---------------|-----------------|
A|-----------------|-----------------|
E|-----------------|-----------------|

[Chorus]
e|-----------------|-----------------|-2---2-------2---|-----------------|
B|-3---3------3----|-3---3-------3---|-3---3-------3---|-3---3-------3---|
G|-----------------|-----------------|-2---2-------2---|-----------------|
D|-----------------|-----------------|-0---0-------0---|-----------------|
A|-3---3------3----|-----------------|-----------------|-----------------|
E|-----------------|-3---3-------3---|-----------------|-3---3-------3---|

e|-----------------|-----------------|-2---2-------2---|-----------------|
B|-3---3------3----|-3---3-------3---|-3---3-------3---|-3---3-------3---|
G|-----------------|-----------------|-2---2-------2---|-----------------|
D|-----------------|-----------------|-0---0-------0---|-----------------|
A|-3---3------3----|-----------------|-----------------|-----------------|
E|-----------------|-3---3-------3---|-----------------|-3---3-------3---|

e|-2---------------|-2---------------|-2-2-2-2-2-2-2-2-|-2-2-2-2-2-------|
B|-3---------------|-3---------------|-3-3-3-3-3-3-3-3-|-3-3-3-3-3-------|
G|-2---------------|-2---------------|-2-2-2-2-2-2-2-2-|-2-2-2-2-2-------|
D|-0---------------|-0---------------|-0-0-0-0-0-0-0-0-|-0-0-0-0-0-------|
A|-----------------|-----------------|-----------------|-----------------|
E|-----------------|-----------------|-----------------|-----------------|

[Post-Chorus]
e|-----------------|-2---2---2-------|
B|-3---3---3---3-3-|-3---3---3---3-3-|
G|-----------------|-2---2---2-------|
D|-----------------|-0---0---0-------|
A|-------------3---|-------------3---|
E|-3---3---3-----3-|---------------3-|

[Verse 2]
(same as first)
  p.m.............. ................. ................. .................
e|-----------------|-----------------|-2-2-2-2-2-2-2-2-|-2-2-2-2---------|
B|-3-3-3-3-3-3-3-3-|-3-3-3-3-3-3-3-3-|-3-3-3-3-3-3-3-3-|-3-3-3-3-3-3-3-3-|
G|-----------------|-----------------|-2-2-2-2-2-2-2-2-|-2-2-2-2---------|
D|-----------------|-----------------|-0-0-0-0-0-0-0-0-|-0-0-0-0---------|
A|-----------------|-----------------|-----------------|-----------------|
E|-3-3-3-3-3-3-3-3-|-3-3-3-3-3-3-3-3-|-----------------|---------3-3-3-3-|

  p.m.............. ................. ................. .................
e|-----------------|-----------------|-2-2-2-2-2-2-2-2-|-2-2-2-2---------|
B|-3-3-3-3-3-3-3-3-|-3-3-3-3-3-3-3-3-|-3-3-3-3-3-3-3-3-|-3-3-3-3-3-3-3-3-|
G|-----------------|-----------------|-2-2-2-2-2-2-2-2-|-2-2-2-2---------|
D|-----------------|-----------------|-0-0-0-0-0-0-0-0-|-0-0-0-0---------|
A|-----------------|-----------------|-----------------|-----------------|
E|-3-3-3-3-3-3-3-3-|-3-3-3-3-3-3-3-3-|-----------------|---------3-3-3-3-|

[Pre-Chorus] 
(same as first)
  p.m.............. ................. ................. .................
e|-2-2-2-2-2-2-2-2-|-2-2-2-2---------|-----------------|---------2-2-2-2-|
B|-3-3-3-3-3-3-3-3-|-3-3-3-3-3-3-3-3-|-3-3-3-3-3-3-3-3-|-3-3-3-3-3-3-3-3-|
G|-2-2-2-2-2-2-2-2-|-2-2-2-2---------|-----------------|---------2-2-2-2-|
D|-0-0-0-0-0-0-0-0-|-0-0-0-0---------|-----------------|---------0-0-0-0-|
A|-----------------|-----------------|-3-3-3-3-3-3-3-3-|-3-3-3-3---------|
E|-----------------|---------3-3-3-3-|-----------------|-----------------|

  p.m.............. ................. ................. .................
e|-----------------|-----------------|-2-2-2-2-2-2-2-2-|-2-2-2-2---------|
B|-3-3-3-3-3-3-3-3-|-3-3-3-3-3-3-3-3-|-3-3-3-3-3-3-3-3-|-3-3-3-3-3-3-3-3-|
G|-----------------|-----------------|-2-2-2-2-2-2-2-2-|-2-2-2-2---------|
D|-----------------|-----------------|-0-0-0-0-0-0-0-0-|-0-0-0-0---------|
A|-----------------|-----------------|-----------------|-----------------|
E|-3-3-3-3-3-3-3-3-|-3-3-3-3-3-3-3-3-|-----------------|---------3-3-3-3-|

e|-2---------------|-----------------|
B|-3---------------|-----------------|
G|-2---------------|-----------------|
D|-0---------------|-----------------|
A|-----------------|-----------------|
E|-----------------|-----------------|

[Chorus 2]
e|-----------------|-----------------|-2---2-------2---|-----------------|
B|-3---3------3----|-3---3-------3---|-3---3-------3---|-3---3-------3---|
G|-----------------|-----------------|-2---2-------2---|-----------------|
D|-----------------|-----------------|-0---0-------0---|-----------------|
A|-3---3------3----|-----------------|-----------------|-----------------|
E|-----------------|-3---3-------3---|-----------------|-3---3-------3---|

e|-----------------|-----------------|-2---2-------2---|-----------------|
B|-3---3------3----|-3---3-------3---|-3---3-------3---|-3---3-------3---|
G|-----------------|-----------------|-2---2-------2---|-----------------|
D|-----------------|-----------------|-0---0-------0---|-----------------|
A|-3---3------3----|-----------------|-----------------|-----------------|
E|-----------------|-3---3-------3---|-----------------|-3---3-------3---|

e|-2---------------|-2---------------|-2-2-2-2-2-2-2-2-|-----------------|
B|-3---------------|-3---------------|-3-3-3-3-3-3-3-3-|-----------------|
G|-2---------------|-2---------------|-2-2-2-2-2-2-2-2-|-----------------|
D|-0---------------|-0---------------|-0-0-0-0-0-0-0-0-|-----------------|
A|-----------------|-----------------|-----------------|-----------------|
E|-----------------|-----------------|-----------------|-----------------|

[Post-Chorus 2]
e|-----------------|-2---2---2-------|-----------------|-2---2---2-------|
B|-3---3---3---3-3-|-3---3---3---3-3-|-3---3---3---3-3-|-3---3---3---3-3-|
G|-----------------|-2---2---2-------|-----------------|-2---2---2-------|
D|-----------------|-0---0---0-------|-----------------|-0---0---0-------|
A|-------------3---|-------------3---|-------------3---|-------------3---|
E|-3---3---3-----3-|---------------3-|-3---3---3-----3-|---------------3-|

e|-----------------|-----------------|
B|-3---3---3---3-3-|-3---3---3---3-3-|
G|-----------------|-----------------|
D|-----------------|-----------------|
A|-----------------|-----------------|
E|-3---3---3---3-3-|-3---3---3---3-3-|

[Bridge]
e|-8--8----8----12-12---12-|-10-10---10---12-12---12-|-8--8----8----12-12---12-|-10-10---10---12-12---12-|
B|-8--8----8----12-12---12-|-10-10---10---12-12---12-|-8--8----8----12-12---12-|-10-10---10---12-12---12-|
G|-9--9----9----12-12---12-|-11-11---11---12-12---12-|-9--9----9----12-12---12-|-11-11---11---12-12---12-|
D|-10-10---10---12-12---12-|-12-12---12---12-12---12-|-10-10---10---12-12---12-|-12-12---12---12-12---12-|
A|-10-10---10---10-10---10-|-12-12---12---10-10---10-|-10-10---10---10-10---10-|-12-12---12---10-10---10-|
E|-8--8----8---------------|-10-10---10--------------|-8--8----8---------------|-10-10---10--------------|

[Chorus 3]
e|-----------------|-----------------|-2---2-------2---|-----------------|
B|-3---3------3----|-3---3-------3---|-3---3-------3---|-3---3-------3---|
G|-----------------|-----------------|-2---2-------2---|-----------------|
D|-----------------|-----------------|-0---0-------0---|-----------------|
A|-3---3------3----|-----------------|-----------------|-----------------|
E|-----------------|-3---3-------3---|-----------------|-3---3-------3---|

e|-----------------|-----------------|-2---2-------2---|-----------------|
B|-3---3------3----|-3---3-------3---|-3---3-------3---|-3---3-------3---|
G|-----------------|-----------------|-2---2-------2---|-----------------|
D|-----------------|-----------------|-0---0-------0---|-----------------|
A|-3---3------3----|-----------------|-----------------|-----------------|
E|-----------------|-3---3-------3---|-----------------|-3---3-------3---|

e|-----------------|-----------------|-2---2-------2---|-----------------|
B|-3---3------3----|-3---3-------3---|-3---3-------3---|-3---3-------3---|
G|-----------------|-----------------|-2---2-------2---|-----------------|
D|-----------------|-----------------|-0---0-------0---|-----------------|
A|-3---3------3----|-----------------|-----------------|-----------------|
E|-----------------|-3---3-------3---|-----------------|-3---3-------3---|

e|-----------------|-----------------|-2---2-------2---|-----------------|
B|-3---3------3----|-3---3-------3---|-3---3-------3---|-3---3-------3---|
G|-----------------|-----------------|-2---2-------2---|-----------------|
D|-----------------|-----------------|-0---0-------0---|-----------------|
A|-3---3------3----|-----------------|-----------------|-----------------|
E|-----------------|-3---3-------3---|-----------------|-3---3-------3---|

e|-2---------------|-2---------------|-2-2-2-2-2-2-2-2-|-----------------|
B|-3---------------|-3---------------|-3-3-3-3-3-3-3-3-|-----------------|
G|-2---------------|-2---------------|-2-2-2-2-2-2-2-2-|-----------------|
D|-0---------------|-0---------------|-0-0-0-0-0-0-0-0-|-----------------|
A|-----------------|-----------------|-----------------|-----------------|
E|-----------------|-----------------|-----------------|-----------------|

(Guitar 2)
e|-8----8--------8----|-12---12-------12---|-10---10-------10---|-12---12-------12---|
B|-8----8--------8----|-12---12-------12---|-10---10-------10---|-12---12-------12---|
G|-9----9--------9----|-12---12-------12---|-11---11-------11---|-12---12-------12---|
D|-10---10-------10---|-12---12-------12---|-12---12-------12---|-12---12-------12---|
A|-10---10-------10---|-10---10-------10---|-12---12-------12---|-10---10-------10---|
E|-8----8--------8----|--------------------|-10---10-------10---|--------------------|

e|-8----8--------8----|-12---12-------12---|-10---10-------10---|-12---12-------12---|
B|-8----8--------8----|-12---12-------12---|-10---10-------10---|-12---12-------12---|
G|-9----9--------9----|-12---12-------12---|-11---11-------11---|-12---12-------12---|
D|-10---10-------10---|-12---12-------12---|-12---12-------12---|-12---12-------12---|
A|-10---10-------10---|-10---10-------10---|-12---12-------12---|-10---10-------10---|
E|-8----8--------8----|--------------------|-10---10-------10---|--------------------|

e|-8----8--------8----|-12---12-------12---|-10---10-------10---|-12---12-------12---|
B|-8----8--------8----|-12---12-------12---|-10---10-------10---|-12---12-------12---|
G|-9----9--------9----|-12---12-------12---|-11---11-------11---|-12---12-------12---|
D|-10---10-------10---|-12---12-------12---|-12---12-------12---|-12---12-------12---|
A|-10---10-------10---|-10---10-------10---|-12---12-------12---|-10---10-------10---|
E|-8----8--------8----|--------------------|-10---10-------10---|--------------------|

e|-8----8--------8----|-12---12-------12---|-10---10-------10---|-12---12-------12---|
B|-8----8--------8----|-12---12-------12---|-10---10-------10---|-12---12-------12---|
G|-9----9--------9----|-12---12-------12---|-11---11-------11---|-12---12-------12---|
D|-10---10-------10---|-12---12-------12---|-12---12-------12---|-12---12-------12---|
A|-10---10-------10---|-10---10-------10---|-12---12-------12---|-10---10-------10---|
E|-8----8--------8----|--------------------|-10---10-------10---|--------------------|

e|-2---------------|-2---------------|-2-2-2-2-2-2-2-2-|-----------------|
B|-3---------------|-3---------------|-3-3-3-3-3-3-3-3-|-----------------|
G|-2---------------|-2---------------|-2-2-2-2-2-2-2-2-|-----------------|
D|-0---------------|-0---------------|-0-0-0-0-0-0-0-0-|-----------------|
A|-----------------|-----------------|-----------------|-----------------|
E|-----------------|-----------------|-----------------|-----------------|

[Outro]
e|-----------------|-2---2---2-------|-----------------|-2---------------|
B|-3---3---3---3-3-|-3---3---3---3-3-|-----------------|-3---------------|
G|-----------------|-2---2---2-------|-----------------|-2---------------|
D|-----------------|-0---0---0-------|-----------------|-0---------------|
A|-------------3---|-------------3---|-----------------|-----------------|
E|-3---3---3-----3-|---------------3-|-----------------|-----------------|

********************************

| p.m.   palm mute

********************************

            
            
Suggest correction
Creating personal tab
Creating personal tab
You can edit any tab online and save it as your Personal.

You can edit, replace or remove any tab part or add personal notes – all changes will be seen only by you.

Personal tabs can be accessed anytime from any device, even offline.
Learn more »
Give kudos to tab author, rate the tab!
1 2 3 4 5
comments
print report bad tab
guest
You may want to rate the tab now too:
select rating
Wanna post a correction for this tab? Suggest correction