Oops, an error
Loading. Please wait.

The Game tab

version 2
version 2

Whole song

Interactive

2,067 views 1 this week
1 commentread comment
1 2 3 4 5
2 more votes to show rating
add to favorites
×
Save as Personal and add changes to this tab that will be seen only by you. Learn more ›
×
You can save this tab as Personal to edit and correct it or add notes. All changes will be seen only by you. Learn more »
launch autoscroll
font size
0
reset
how to read this tab
guitar tuner
edit
Autoscroll
slow
fast
+/-
esc
set tempo
stop
Right, there's like tree tabs up off this, and they aint really all that good. so im 
try and bring you the good here.

To get that heavy sound which drowning pool get, you gotta tune down to drop c.

0:01
e|------------------------------|-----------------|
B|------------------------------|-----------------|
G|------------------------------|-----------------|
D|--------10-10--8-8------8-----|------10-10--8---| << do that the last time
A|---8-8-------------9-9----9---|---88------------|          round.
E|------------------------------|-----------------|

0:11
D|-----------------------------|----------------------------|
A|-----------------------------|----------------------------|
F|-----------------------------|----------------------------|
C|---444--444--444--444---0-2--|--444--444--444--444---0-2--|
G|---444--444--444--444---0-2--|--444--444--444--444---0-2--|
C|---444--444--444--444---0-2--|--444--444--444--444---0-2--|

0:21
D|--------------------------------------------------------------------------|
A|--------------------------------------------------------------------------|
F|--------------------------------------------------------------------------|
C|--444444444---7777-6666---4444444--000--222---44444--777-666---4444-444-xx|
G|--444444444---7777-6666---4444444--000--222---44444--777-666---4444-444-xx|
C|--444444444---7777-6666---4444444--000--222---44444--777-666---4444-444-xx|
PM  *********   **** ****   *******  ***  ***   *****  *** ***

0:43
D|----------------------------------|
A|----------------------------------|
F|----------------------------------|
C|--444444--00-0---7777777---99999--| 2Times.
G|--444444--00-0---7777777---99999--|
C|--444444--00-0---7777777---99999--|

1:04
D|----------------|
A|-------12-------|
F|-------14b------|
C|-----------0-2--| bend 6times.
G|-----------0-2--|
C|-----------0-2--|

1:12
D|--------------------------------------------------------------------------|
A|--------------------------------------------------------------------------|
F|--------------------------------------------------------------------------|
C|--444444444---7777-6666---4444444--000--222---44444--777-666---4444-444-xx|
G|--444444444---7777-6666---4444444--000--222---44444--777-666---4444-444-xx|
C|--444444444---7777-6666---4444444--000--222---44444--777-666---4444-444-xx|
PM  *********   **** ****   *******  ***  ***   *****  *** ***

1:36
D|----------------------------------|
A|----------------------------------|
F|----------------------------------|
C|--444444--00-0---7777777---99999--| 
G|--444444--00-0---7777777---99999--|
C|--444444--00-0---7777777---99999--|

1:58
D|---------------------------------------------------------------|
A|---------------------------------------------------------------|
F|---------------------------------------------------------------|
C|--333--10-8--8------333--10-8-8---333--10-8-8-----333-10-8--8--|
G|--333-------9--9-8--333------9----333------9--9-8-333------9---|
C|--333---------------333-----------333-------------333----------|

2:18
D|------------------------------------------|
A|------------------------------------------|
F|------------------------------------------|2times.
C|------------------------------------------|i think hes using some sort of 
G|------------------------------------------|             wahh.
C|--44444--77777-666666--44444-00000-22222--|

And im still working on the solo ;]
soo, it will all be done soon. thank you and enjoy.

            
            
Suggest correction
Creating personal tab
Creating personal tab
You can edit any tab online and save it as your Personal.

You can edit, replace or remove any tab part or add personal notes – all changes will be seen only by you.

Personal tabs can be accessed anytime from any device, even offline.
Learn more »
Give kudos to tab author, rate the tab!
1 2 3 4 5
comments
print report bad tab
1 comment total.
0 reply
xKnifekillerx 393 May 22, 2009 01:32 PM

Should all be updated tomorrow :]]
just finished it.

guest
You may want to rate the tab now too:
select rating
Wanna post a correction for this tab? Suggest correction