Oops, an error
Loading. Please wait.

Movin N Groovin tab

3,272 views 12 this week
4 commentsread comments
1 2 3 4 5
x 3
add to favorites
×
Save as Personal and add changes to this tab that will be seen only by you. Learn more ›
×
You can save this tab as Personal to edit and correct it or add notes. All changes will be seen only by you. Learn more »
launch autoscroll
font size
0
reset
how to read this tab
guitar tuner
edit
Autoscroll
slow
fast
+/-
esc
set tempo
stop
Author
Difficulty
"Movin N' Groovin"
by Duane Eddy

transcribed by kevin gardner
               transtrem@hotmail.com

Duane tunes up 1/2 step for this song.  Low to high the guitar
is tuned F Bb Eb Ab C F.
Duane uses his L E F T hand to manipuate whammy bar.
If you play an old Gretch this is easy since the bar can be
positioned in a stable fassion pointing to the guitar's tuning pegs.
If, like me, you have worn out the threds on your bar, and it is
constantly swinging about try placing a paper tube over your
volume knob, thus construction a makeshift shelf for your bar to
rest on.  Remember use your  left hand to dip the bar down 1/2 step
as you simltantiously strike the note.


Good luck!

B = Bend up 1/2 step
* = dip the note down 1/2 step using your left hand to
    manipulate the bar
/ = slide

part #1

E
----------------------------------------|
-------12-12-12----------------12-------|
-13-14-13-13-13-14-13----13-14-13-------|
-14-14----------14-14-14-14-14----------|
----------------------14----------------|
----------------------------------0-0-0-|

E
----------------------------------------|
-------12-12-12----------------12-------|
-13-14-13-13-13-14-13----13-14-13-------|
-14-14----------14-14-14-14-14----------|
----------------------14----------------|
----------------------------------0-0-0-|

A
------------------------------------|
------------------------------------|
------------------------------------|
------------------------------------|
----0-----0-----0-----0-----0-------|
-4B----4B----4B----4B----4B----4B---|

E
---------------------------------|
---------------------------------|
---------------------------------|
---------------------------------|
---------------------------------|
-0*-0--0*-0--0*-0--0*-0--0*-0--0-|

B
-------------------|
-------------------|
-------------------|
-------------------|
-1/2-2--1/2-2--2-2-|
-------------------|

A
--------------------|
--------------------|
--------------------|
--------------------|
----0-----0-----0---|
-4B----4B----4B-----|

E
---------------------------------|
---------------------------------|
---------------------------------|
---------------------------------|
---------------------------------|
-0*-0--0*-0--0*-0--0*-0--0*-0--0-|

part #2
E
---------------------------------|
---------------------------------|
---------------------------------|
---------------------------------|
---------------------------------|
-0*-0--0*-0--0*-0--0*-0--0*-0--0-|

E
---------------------------------|
---------------------------------|
---------------------------------|
---------------------------------|
---------------------------------|
-0*-0--0*-0--0*-0--0*-0--0*-0--0-|


A
------------------------------------|
------------------------------------|
------------------------------------|
------------------------------------|
----0-----0-----0-----0-----0-------|
-4B----4B----4B----4B----4B----4B---|

E
---------------------------------|
---------------------------------|
---------------------------------|
---------------------------------|
---------------------------------|
-0*-0--0*-0--0*-0--0*-0--0*-0--0-|

B
-------------------|
-------------------|
-------------------|
-------------------|
-1/2-2--1/2-2--2-2-|
-------------------|

A
--------------------|
--------------------|
--------------------|
--------------------|
----0-----0-----0---|
-4B----4B----4B-----|

E
---------------------------------|
---------------------------------|
---------------------------------|
---------------------------------|
---------------------------------|
-0*-0--0*-0--0*-0--0*-0--0*-0--0-|

            
            
Suggest correction
Creating personal tab
Creating personal tab
You can edit any tab online and save it as your Personal.

You can edit, replace or remove any tab part or add personal notes – all changes will be seen only by you.

Personal tabs can be accessed anytime from any device, even offline.
Learn more »
Give kudos to tab author, rate the tab!
1 2 3 4 5
comments
print report bad tab
4 comments total. Showing first comments.
0 reply
Johnny49 31 Aug 03, 2013 02:11 AM

in part one when you play on the high strings witch 13/14 etc. you dont make on the low e string -0-0-0-, you play an E chord on the neck pickup

0 reply
Hardekern 10 Jan 06, 2017 05:12 PM, edited at 10:14 pm

the intro E can be played also like, thats the way I play and Set your Low E string an Octave lower, thats the way Duane Eddy plays to dip the low E string lower to get this effect on Movin n groovin, Rebel rouzer, Ramrot, Twistin' 'N' Twangin' these kind of his songs

E --9--9--9--9--9--9--9--9--9--9--9----------| 2xb --10-10-10-10-10-10-10-10-10-10-10---------|g --9--9--9--9--9--9--9--9--9--9--9----------|D --11-11-11-11-11-11-11-11-11-11-11---------|A -------------------------------------------|E ------------------------------------0-0-0--|

0 reply
Hardekern 10 Jan 06, 2017 05:15 PM

the intro E can be played also like, thats the way I play and Set your Low E string an Octave lower, thats the way Duane Eddy plays to dip the low E string lower to get this effect.

Movin n groovin, Rebel rouzer, Ramrot, Twistin' 'N' Twangin' these kind of his songs

E --9--9--9--9--9--9--9--9--9--9--9----------| 2x
b --10-10-10-10-10-10-10-10-10-10-10---------|
g --9--9--9--9--9--9--9--9--9--9--9----------|
D --11-11-11-11-11-11-11-11-11-11-11---------|
A -------------------------------------------|
E ------------------------------------0-0-0--|

guest
You may want to rate the tab now too:
select rating
Wanna post a correction for this tab? Suggest correction