Oops, an error
Loading. Please wait.

Friends Of Mine tab

181 views 1 this week
no commentswrite comment
1 2 3 4 5
3 more votes to show rating
add to favorites
×
Save as Personal and add changes to this tab that will be seen only by you. Learn more ›
×
You can save this tab as Personal to edit and correct it or add notes. All changes will be seen only by you. Learn more »
launch autoscroll
font size
0
reset
how to read this tab
guitar tuner
edit
Autoscroll
slow
fast
+/-
esc
set tempo
stop
Author
Difficulty
(main riff) 0:38

e|---------------------------------------------------------------------------|
B|---------------------------------------------------------------------------|
G|---------------------------------------------------------------------------|
D|---------8----------8------------------------------------------------------| 3X
A|-2---------7-7-7------7-7-7------------------------------------------------|
E|-0-------------------------------------------------------------------------|

    (0:50)
  
e|-10~- 10~------------------------------------------------------------------|
B|-10~--10~--10~-------------------------------------------------------------|
G|---------------------------------------------------------------------------|
D|---------------------------------------------------------------------------|
A|---------------------------------------------------------------------------|
E|---------------------------------------------------------------------------|


(main riff) 0:54

e|---------------------------------------------------------------------------|
B|---------------------------------------------------------------------------|
G|---------------------------------------------------------------------------|
D|--------8-----------8------------------------------------------------------| 3x
A|-2--------7-7-7-------7-7-7------------------------------------------------|
E|-0-------------------------------------------------------------------------|

    (1:07)

e|-10~--10~------------------------------------------------------------------|
B|-10~--10~--10~-------------------------------------------------------------|
G|---------------------------------------------------------------------------|
D|---------------------------------------------------------------------------|
A|---------------------------------------------------------------------------|
E|---------------------------------------------------------------------------|


(solo 1) 1:09

e|------------------------------15TR-15TR-15TR-------------------------------|
B|---------------------------------------------------------------------------|
G|---------------------------------------------------------------------------|
D|-7TR-7-5-------------------------------------------------------------------|
A|---------7--2-0------------------------------------------------------------|
E|----------------3-3-0------------------------------------------------------|


(main riff) 1:18

e|---------------------------------------------------------------------------|
B|---------------------------------------------------------------------------|
G|---------------------------------------------------------------------------|
D|--------8-----------8------------------------------------------------------| 3x
A|-2--------7-7-7-------7-7-7------------------------------------------------|
E|-0-------------------------------------------------------------------------|




(chorus) 1:33

e|---------------------------------------------------------------------------|
B|-----5-------5-------------------------------------------------------------|
G|-----5-------5-------------------------------------------------------------|
D|-5---5---5---5---7---12---7---12-------------------------------------------| 2x
A|-5---3---5---3---7---12---7---12-------------------------------------------|
E|-3-------3-------5---10---5---10-------------------------------------------|


  (main riff) 2:13

e|---------------------------------------------------------------------------|
B|---------------------------------------------------------------------------|
G|---------------------------------------------------------------------------|
D|--------8-----------8------------------------------------------------------| 3x
A|-2--------7-7-7-------7-7-7------------------------------------------------|
E|-0-------------------------------------------------------------------------|


(2:24)

e|-10~--10~------------------------------------------------------------------|
B|-10~--10~--10~-------------------------------------------------------------|
G|---------------------------------------------------------------------------|
D|---------------------------------------------------------------------------| 
A|---------------------------------------------------------------------------|
E|---------------------------------------------------------------------------|


(solo 2) 2:27

e|-12-12-12-12-12-12-12-12-12-12-12-12---------------12TR--------------------|
B|-15b15b15b15b15b15b15b15b15b15b15b15b----------15b-------------------------|
G|--------------------------------------------12-----------------------------|
D|-----------------------------------------14--------------------------------| 
A|---------------------------------------------------------------------------|
E|---------------------------------------------------------------------------|

  (main riff) 2:36
    
e|---------------------------------------------------------------------------|
B|---------------------------------------------------------------------------|
G|---------------------------------------------------------------------------|
D|--------8-----------8------------------------------------------------------| 3x
A|-2--------7-7-7-------7-7-7------------------------------------------------|
E|-0-------------------------------------------------------------------------|


(2:47)

e|-10~--10~------------------------------------------------------------------|
B|-10~--10~--10~-------------------------------------------------------------|
G|---------------------------------------------------------------------------|
D|---------------------------------------------------------------------------|
A|---------------------------------------------------------------------------|
E|---------------------------------------------------------------------------|



(chorus) 2:51

e|---------------------------------------------------------------------------|
B|-----5-------5-------------------------------------------------------------|
G|-----5-------5-------------------------------------------------------------|
D|-5---5---5---5---7---12---7---12-------------------------------------------| 2x
A|-5---3---5---3---7---12---7---12-------------------------------------------|
E|-3-------3-------5---10---5---10-------------------------------------------|




(main riff) 3:53

e|---------------------------------------------------------------------------|
B|---------------------------------------------------------------------------|
G|---------------------------------------------------------------------------|
D|--------8-----------8------------------------------------------------------| 5x
A|-2--------7-7-7-------7-7-7------------------------------------------------|
E|-0-------------------------------------------------------------------------|


  (4:13)

e|-10~--10~------------------------------------------------------------------|
B|-10~--10~--10~-------------------------------------------------------------|
G|---------------------------------------------------------------------------|
D|---------------------------------------------------------------------------|
A|---------------------------------------------------------------------------|
E|---------------------------------------------------------------------------|

solo 3 (4:16)

e|------3p2------------------------------------------------------------------|
B|-3b-5-----3b-5-------------------------------------------------------------|
G|---------------------------------------------------------------------------| 2x
D|---------------------------------------------------------------------------|
A|---------------------------------------------------------------------------|
E|---------------------------------------------------------------------------|


(main riff) 4:25

e|---------------------------------------------------------------------------|
B|---------------------------------------------------------------------------|
G|---------------------------------------------------------------------------|
D|--------8-----------8------------------------------------------------------| 3x
A|-2--------7-7-7-------7-7-7------------------------------------------------|
E|-0-------------------------------------------------------------------------|


  (4:36)

e|-10~--10~------------------------------------------------------------------|
B|-10~--10~--10~-------------------------------------------------------------|
G|---------------------------------------------------------------------------|
D|---------------------------------------------------------------------------|
A|---------------------------------------------------------------------------|
E|---------------------------------------------------------------------------|


(final chorus) 4:39

e|---------------------------------------------------------------------------|
B|-----5-------5-------------------------------------------------------------|
G|-----5-------5-------------------------------------------------------------|
D|-5---5---5---5---7---12---7---12-------------------------------------------| 2x
A|-5---3---5---3---7---12---7---12-------------------------------------------|
E|-3-------3-------5---10---5---10-------------------------------------------|


(solo 4)

e|-10-8-7-----10-8-7-----12-10-9-------12-10-9-------------------------------|
B|--------8----------8-----------10------------10----------------------------|
G|----------9----------9------------11------------11-------------------------|
D|---------------------------------------------------------------------------| 
A|---------------------------------------------------------------------------|
E|---------------------------------------------------------------------------|













************************************

| p   Pull-off
| b   Bend
| ~   Vibrato
| TR  Trill

************************************

            
            
Suggest correction
Creating personal tab
Creating personal tab
You can edit any tab online and save it as your Personal.

You can edit, replace or remove any tab part or add personal notes – all changes will be seen only by you.

Personal tabs can be accessed anytime from any device, even offline.
Learn more »
Give kudos to tab author, rate the tab!
1 2 3 4 5
comments
print report bad tab
guest
You may want to rate the tab now too:
select rating
Wanna post a correction for this tab? Suggest correction