Oops, an error
Loading. Please wait.

Of Crime And Passion bass

version 2
version 2

Whole song

433 views 1 this week
no commentswrite comment
1 2 3 4 5
3 more votes to show rating
add to favorites
×
Save as Personal and add changes to this tab that will be seen only by you. Learn more ›
×
You can save this tab as Personal to edit and correct it or add notes. All changes will be seen only by you. Learn more »
launch autoscroll
font size
0
reset
guitar tuner
edit
Autoscroll
slow
fast
+/-
esc
set tempo
stop
Author
Difficulty
Artist: Duran Duran
Song Title: Of Crime & Passion
Album: Seven And The Ragged Tiger (1983)
Song Duration: 03:51 min
Tabbed By: zowie54@gmail.com
Instructions:

(   ) - Song time elapsed

\ - Slide down

/ - Slide up



     Intro(00:01)

G|-----------------------------------|
D|-----------------------------------|
A|--7-5-4-------4-------5------------|
E|----------0-2-----33-----0---------| 

G|-----------------------------------|
D|-----------------------------------|
A|--7-5-0-------4-------5------------|
E|----------0-2-----33-----0---------|

G|-----------------------------------|
D|-----------------------------------|
A|--75-4-0------4-------5------------|
E|----------0-2-----33---------------|

G|-----------------------------------|
D|-----------------------------------|
A|--02-33-3-3---3\6--666/------------|
E|-----------------------------------|

Verse I  (00:15)

G|-----------------------------------|
D|-----------------------------------|
A|--------------55---------------x5--|
E|--0-2-3-5-5---------0-2-3-5-5------|

G|-------------------------------------|
D|-------------------------------------|
A|--------------x5---3-3-3--3\6--666/--|
E|--0-2-3-5-5--------------------------|

G|-----------------------------------|
D|-----------------------------------|
A|--------------x5---------------x5--|
E|--0-2-3-5-5---------0-2-3-5-5------|

G|-------------------------------------|
D|-------------------------------------|
A|--------------x5---3-3-3--3\6--666/--|
E|--0-2-3-5-5--------------------------|

Bridge   (00:42)

G|------------------------------------|
D|------------------------------------|
A|----------55--55-----------33--330--|
E|--33--33-----------11--11-----------|

G|------------------------------------|
D|------------------------------------|
A|----------55--55-----------33--33---|
E|--33--33-----------11--11-----------|

Chorus   (00:55)

G|-----------------------------------|
D|-----------------------------------|
A|--x5-7--5-77--5-77--5-777--00--00--|
E|-----------------------------------|


G|-----------------------------------|
D|-----------------------------------|
A|--x523--xx235----------------------|
E|---------------00-00-00-00---------|

G|-----------------------------------|
D|-----------------------------------|
A|--00--000---x5--x5-----------------|
E|-----------------------------------|

Intro II  (01:09)

G|-------------------------------------|
D|-------------------------------------|
A|--0-7-5-4-------4-------5------------|
E|------------0-2-----33-----0---------|

G|-----------------------------------|
D|-----------------------------------|
A|--7-5-0-------4-------5------------|
E|----------0-2-----33-----0---------|

G|-----------------------------------|
D|-----------------------------------|
A|--75-4-0------4-------5------------|
E|----------0-2-----33---------------|

G|-----------------------------------|
D|-----------------------------------|
A|--02-33-3-3---3\6--666/------------|
E|-----------------------------------|

Verse (01:22)

G|-----------------------------------|
D|-----------------------------------|
A|--------------55---------------x5--|
E|--0-2-3-5-5---------0-2-3-5-5------|

G|-------------------------------------|
D|-------------------------------------|
A|--------------x5---3-3-3--3\6--666/--|
E|--0-2-3-5-5--------------------------|

G|-----------------------------------|
D|-----------------------------------|
A|--------------x5---------------x5--|
E|--0-2-3-5-5---------0-2-3-5-5------|

G|-------------------------------------|
D|-------------------------------------|
A|--------------x5---3-3-3--3\6--666/--|
E|--0-2-3-5-5--------------------------|

Bridge II  (01:49)

G|------------------------------------|
D|------------------------------------|
A|----------55--55-----------33--330--|
E|--33--33-----------11--11-----------|

G|------------------------------------|
D|------------------------------------|
A|----------55--55-----------33--33---|
E|--33--33-----------11--11-----------|

Chorus  (02:03)

G|-----------------------------------|
D|-----------------------------------|
A|--x5-7--5-77--5-77--5-777--00--00--|
E|-----------------------------------|


G|-----------------------------------|
D|-----------------------------------|
A|--x523--xx235----------------------|
E|---------------00-00-00-00---------|

G|-----------------------------------|
D|-----------------------------------|
A|--00--00----x5--x5-----------------|
E|-----------------------------------|

Outro  (02:16)
            s
G|----------7h9----------------|
D|-----------------------------|
A|------------------------12/--|
E|--0-0-0---------00-0---------|
    p p p         pp p 

            s              s
G|----------7h9----------------|
D|-------------------------7h9-|
A|-----------------------------|
E|--0-0-0---------00-0---------|
    p p p         pp p 

            s              s
G|----------7h9----------------|
D|-------------------------7h9-|
A|-----------------------------|
E|--0-0-0---------00-0---------|
    p p p         pp p 


            s
G|----------7h9----------------|
D|-------------------------7/--|
A|-----------------------------|
E|--0-0-0---------00-0---------|
    p p p         pp p

Outro II (02:30)
                        s s
G|----------------------7-7h9--|
D|-----------------------------|
A|--2-4-5--4-2-4--2-0----------|
E|-----------------------------|


                   
G|-----------------------------|
D|-----------------------33-23-|
A|--2-4-5--4-2-4--2-0----------|
E|-----------------------------|


                        s s
G|----------------------7-7h9--|
D|-----------------------------|
A|--2-4-5--4-2-4--2-0----------|
E|-----------------------------|

G|--------------------|
D|--------------------|
A|--3-3-3--3\6--666/--|
E|--------------------|

Bridge  (02:43)

G|------------------------------------|
D|------------------------------------|
A|----------55--55-----------33--330--|
E|--33--33-----------11--11-----------|

G|------------------------------------|
D|------------------------------------|
A|----------55--55-----------33--33---|
E|--33--33-----------11--11-----------|

Chorus (02:57)

G|-----------------------------------|
D|-----------------------------------|
A|--x5-7--5-77--5-77--5-777--00--00--|
E|-----------------------------------|


G|-----------------------------------|
D|-----------------------------------|
A|--x523--xx235----------------------|
E|---------------00-00-00-00---------|

G|-----------------------------------|
D|-----------------------------------|
A|--00--00----x5--x5-----------------|
E|-----------------------------------|


G|-----------------------------------|
D|-----------------------------------|
A|--x5-7--5-77--5-77--5-777--00--00--|
E|-----------------------------------|


G|-----------------------------------|
D|-----------------------------------|
A|--x523--xx235----------------------|
E|---------------00-00-00-00---------|

G|-----------------------------------|
D|-----------------------------------|
A|--00--00----x5--x5-----------------|
E|-----------------------------------|


G|-----------------------------------|
D|-----------------------------------|
A|--x5-7--5-77--5-77--5-777--00--00--|
E|-----------------------------------|


G|-----------------------------------|
D|-----------------------------------|
A|--x523--xx235----------------------|
E|---------------00-00-00-00---------|

G|-----------------------------------|
D|-----------------------------------|
A|--00--00----x5--x5-----------------|
E|-----------------------------------|

                 Intro
  E-3     D-3         E-3   D-3       Am/C   Am-5/Eb

Em            A-3
Why? Did you let me run
           Em                  A-3
when you knew I'd fall for the gaping hole
           Em             A-3
where your heart should be
 
  Am/C       Am-5/Eb

Em  A-3                Em                           A-3 
Liar! Couldn't cut me deeper with a knife if you tried
            Em                           A-3
Just take a look before you run off and hide
                   Am/C   Am-5/Eb
at your victim arise 
G                 D
Clouds on your shoulder
            F                        C7
Aren't they grazed by the afterglow?
G                 D
How quiet they gather
               Bb/F           C
when the storm's about to blow

Chorus

   Em             Am                         D
No don't look away  caught in the crossfire and it
 Em                     Am
ain't no wind of change
                         D 
I'm talking of crime and passions rage

E-3     D-3         E-3   D-3          Am/C   Am-5/Eb

   
Em                      A-3        Em
Summer of madness or the undertow dragged me up an alley
         A-3                  Em              A-3
for the blossoming fire on a stranger's smile
   
    Am/C          Am-5/Eb

Em           A-3            Em                 A-3
Bride of wire!  How disguise so easily cracked!
          Em                        A-3                  
Saw your heart turn spade   this orchid's turned to black

   Am/C         Am-5/Eb

G                  D
Graze on your shoulder
         F                      C7
Like the clouds in the afterglow
G                 D
How quiet they gather
         Bb/F                  C
when the storm's about to blow

Chorus

   Em             Am                         D
No don't look away  caught in the crossfire and it
 Em                     Am
ain't no wind of change
                         D 
I'm talking of crime and passions rage

 D-3   E-3    D-3   E-3   D-3  E-3   D-3  E-3   D-3  E-3
  
E-3     D-3         E-3   D-3   E-3  D-3    Am/C   Am-5/Eb



G                  D              F                  C7
Way down by the shoulder  in the haze of the afterglow
G          D                  Bb/F              C
stranded together and the storm's about to blow


Chorus

   Em             Am                         D
No don't look away  caught in the crossfire and it
 Em                     Am
ain't no wind of change
                         D 
I'm talking of crime and passions rage

            
            
Suggest correction
Creating personal tab
Creating personal tab
You can edit any tab online and save it as your Personal.

You can edit, replace or remove any tab part or add personal notes – all changes will be seen only by you.

Personal tabs can be accessed anytime from any device, even offline.
Learn more »
Give kudos to tab author, rate the tab!
1 2 3 4 5
comments
print report bad tab
guest
You may want to rate the tab now too:
select rating
Wanna post a correction for this tab? Suggest correction