Oops, an error
Loading. Please wait.

Rio bass

version 2
version 2

Whole song

Interactive

7,985 views 3 this week
2 commentsread comments
1 2 3 4 5
x 9
add to favorites
×
Save as Personal and add changes to this tab that will be seen only by you. Learn more ›
×
You can save this tab as Personal to edit and correct it or add notes. All changes will be seen only by you. Learn more »
launch autoscroll
font size
0
reset
guitar tuner
backing track
0:00
0:00
edit
Autoscroll
slow
fast
+/-
esc
set tempo
stop
Author
Artist: Duran Duran
Song: Rio
Tuning: Standard (EADG)
Author: Zephyros


Intro

G |-----------0-1-2-|-----------0-1-2-|-----------0-1-2-|-----------0-1-2-|
D |---2—0—-(0)------|---2—0—-(0)------|---2—0—-(0)------|---2—0--(0)------|
A |-----------------|-----------------|-----------------|-----------------|
E |-0---------------|-0---------------|-0---------------|-0---------------|


Verse (x3)

G |-----------0-1-2-|-----------0-1-2-|-----2-----------|-----5—-(5)------|
D |---2—0—-(0)------|---2—0—-(0)------|---2—-----2---2--|---5—------5---5-|
A |-----------------|-----------------|-0----------0----|-3-----------3---| 
E |-0---------------|-0---------------|-----------------|-----------------|


G |-----------0-1-2-|-----------0-1-2-|-----6-----------|-----5—-(5)------|
D |---2—0—-(0)------|---2—0—-(0)------|---6—-----6---6--|---5—------5---5-|
A |-----------------|-----------------|-4----------4----|-3-----------3---| 
E |-0---------------|-0---------------|-----------------|-----------------|


G |-----------------------------------------------------------------------|
D |-----------------------------------------------------------------------|
A |-----------------------------------------------------------------------|
E |-0/--------------------------------------------------------------------|


Chorus

G |------------|---------------|-------------------|---------0-1----------|
D |-2—2--------|-----2---------|-0--0—--(0)(0)-----|----------------------|
A |--------2/4-|2--2---4-4-3-2-|---------------3-2-|-0--------------------|
E |------0-----|---------------|-------------------|----2-3---------------|
									        > >

G |------------|---------------|-------------------|----------------------|
D |-2—2--------|-----2---------|-0--0—--(0)(0)-----|----------------------|
A |--------2/4-|2--2---4-4-3-2-|---------------3-2-|-0---0----------------|
E |------0-----|---------------|-------------------|--------2-3----4------|
                                                              >    >


Bridge

G |------------------|------------|-------------|-----------------------|
D |------------------|----2-3-4---|--(4)4-3-----|-----------------------|
A |---4---(4)4-3-0---|-(0)--------|---------0---|--(0)-2-3-4------------|x2
E |------------------|------------|-------------|-----------------------|


G |------------------|------------|-------------|-----------------------|
D |----------2-3-4---|-(4)4-3-----|-------------|-----------------------|
A |---4---(4)--------|---------0--|--(0)-2-3-4--|--(0)-2-3-4------------|x2
E |------------------|------------|-------------|-----------------------|


G |---(6)6--4--------|-----------------|--------------2----|------------|
D |------------6---6-|---(4)4--2-------|---------2---4---4-|-----4-5-6--|
A |-4-------------4--|-----------4---4-|-0-(0)4------------|-4—4--------|x3
E |------------------|-2-----------2---|-------------------|------------|


G |----(6)6--4-----------|---------------------|--------------------------|
D |--------------6---6---|----(4)4--2----------|--------------------------|
A |--4-------------4-----|-------------4---4---|--0-0-0-0-0-0-0-0---------|
E |----------------------|--2------------2-----|--------------------------|


G |----------------------|------------------------------------------------|
D |----------------------|------------(7)/(12)\(2)------------------------|
A |----------------------|------------------------------------------------|
E |----------------------|------------------------------------------------|



Verse

Chorus

            
            
Suggest correction
Creating personal tab
Creating personal tab
You can edit any tab online and save it as your Personal.

You can edit, replace or remove any tab part or add personal notes – all changes will be seen only by you.

Personal tabs can be accessed anytime from any device, even offline.
Learn more »
comments
print report bad tab
2 comments total.
-2 reply
Vikothesiko 10 Aug 15, 2009 10:51 PM

Are you sh*&&ing me? A better alternative to this post would have been blank effing lines. Imagine: A three toed sloth with a tin ear. Obviously that was the demographic you had in mind whilst pretending to tab. Thank you come again.

0 reply
bootvi 10 Mar 06, 2015 08:12 AM

Clearly wrong. missing all the ghost notes, completely off chorus. the verse should start from 7th fret
ver3 has it right, check that one.

guest
You may want to rate the tab now too:
select rating
Wanna post a correction for this tab? Suggest correction