Oops, an error
Loading. Please wait.

The Wolves Reprise chords

562 views 9 this week
no commentswrite comment
1 2 3 4 5
1 last vote to show rating
add to favorites
×
Save as Personal and add changes to this tab that will be seen only by you. Learn more ›
×
You can save this tab as Personal to edit and correct it or add notes. All changes will be seen only by you. Learn more »
launch autoscroll
font size
0
reset
transpose
0
reset
simplify chords
display chords
guitar tuner
edit
Autoscroll
slow
fast
+/-
esc
set tempo
stop
Strumming
There is no strumming pattern for this song yet. and get +5 IQ
-------------------------------------
The Wolves (Reprise) - Dustin Tebbutt
-------------------------------------

Definitely one of my favourite songs right now. Just a fantastic acoustic piece and I never thought I'd
say this about any song ever, but I love the banjo part in this song. I almost decided not to post this
because the selfish part of me just wanted to have this to myself and let everyone else figure it out
for themselves. It would help them out with their ear training and figuring songs out by ear like I did
with this. I might even decide to take this down at a later date. I don't know.
A bit on the lyrics:
Since Dustin is the only one who knows the actual words to the song, I've had to guess by ear. So excuse me
if what you hear is different from what's written as the lyrics here. I could make out most of the words
simply enough, but there's that one line "With Conand in a pick". Please allow me to elaborate on this.
Whenever I would listen to the song, I would always have trouble figuring out what he's saying in that line.
It kept sounding like he said "Conand" to me. So I looked it up, and after some digging, I found out that
Conand is actually a real name from Irish mythology. And it gets better. Another word for Conand is Conann, 
which means wolf!! Even if it isn't the actual lyric Dustin used, I thought that this info was too good to
pass up. The more you know!

Capo 2nd fret

 Chords:
   C/F Am/E E+ Am7 C/D C Am/F#
e|--0------------------0------|
B|--1---1---1---1---1--1---1--|
G|--0---2---1---0---0--0---2--|
D|--3---2---2---2---0--2---4--|
A|--0------------------3------|
E|----------------------------|

[Intro]
  C/F   Am/E E+ Am7     C/F      C/D Am7 C/F       C
e|-0---------------------0----------------0--------0--------|
B|-1-----1---1---1-------1--------1---1---1--------1--------|
G|-0-----2---1---0-------0--------0---0---0--------0--------|
D|-3---0-2---2---2---0h2-3--------0---2---3--------2--------|
A|-0-----------------------------------------------3--------|
E|----------------------------------------------------------|

C/F                  Am/E  E+  Am7
   Wolves are waiting
C/F                 Am/E  E+  Am7
   With Conand in a pick
C/F                     Am/E  E+  Am7
   Those feathers suffer
C/F                Am/E  E+  Am7
   The soil of the tick 
C/F                   Am/E  E+  Am7  Am/F#
   Well lone surrender 
C/F              Am/E  E+  Am7
   The echo of embrace
C/F                 Am/E  E+  Am7
   And how I'm sorry
C/F                    C/D  Am7  C/F        C
   Give balance to the break

[Banjo part]
(no capo)
e|-10----10--9--7--5------------------------------------------------------|
B|-10----10--10-7--5--7----8-------7--8/10-8-7----8-------7--8--10-8-7----|
G|-11----11--9--7--6--7----7-------7--7-7--7-7----7-------7--7--7--7-7----|
D|--------------------7----9-------9--9-9--9-7----9-------9--9--9--9-7----|
A|------------------------------------------------------------------------|
E|------------------------------------------------------------------------|

e|-10--9--7--5----------------------------------------------------|
B|-10--10-7--5--7---5-8-------8/10-8-7----8-------7--8--10-8-7----|
G|-11--9--7--6--7---7-7-------7-7--7-7----7-------7--7--7--7-7----| 4x
D|--------------7---7-9-------9-9--9-7----9-------9--9--9--9-7----|
A|----------------------------------------------------------------|
E|----------------------------------------------------------------|

If you have any corrections, feel free to let me know in the comments. Enjoy :)

            
            
Suggest correction
Creating personal tab
Creating personal tab
You can edit any tab online and save it as your Personal.

You can edit, replace or remove any tab part or add personal notes – all changes will be seen only by you.

Personal tabs can be accessed anytime from any device, even offline.
Learn more »
Give kudos to tab author, rate the tab!
1 2 3 4 5
comments
print report bad tab
guest
You may want to rate the tab now too:
select rating
Wanna post a correction for this tab? Suggest correction